Mindless Self Indulgence - Ala Mode Chords & Tabs

 

Ala Mode Chords & Tabs

Mindless Self Indulgence Chords & Tabs

Version: 1 Type: Bass Tab 0 ratings
1 star 2 stars 3 stars 4 stars 5 stars
comments

Ala Mode Bass Tab

   
Part A: (Verse)
G|-------------------------|
D|-------------------------|
A|-1-1-1--3-3-3-------1-1-1|   x2
E|--------------3-3-3------|

Part B: (Pre-Chorus)
G|------------|
D|------------|
A|-11-33---1--|  x4
E|-------33---| 
[ Tab from: http://www.guitartabs.cc/tabs/m/mindless_self_indulgence/ala_mode_btab.html ]
Part C: (Chorus)
G|------------------------------------|
D|------------------------------------|
A|-11111111-33333333----------11111111| x2
E|-------------------33333333---------|

Part A x2
Part B x4
Part C x2

BREAK 1:26 - 1:32

Part D (Bridge)
G|----------------| 
D|----------------|
A|-1-1-1-1--------|   x1
E|---------3-3-3-3|

Part A x2

Pause 1:53-1:57

Part B x3 

Part C x2


My first tab, I hope it's ok :) Really simple tab and fun to play, sorry for any mistakes!
Comments