Milton - Saved By The Bell Chords & Tabs

 

Saved By The Bell Chords & Tabs

Milton Chords & Tabs

Version: 2 Type: Tab 0 ratings
1 star 2 stars 3 stars 4 stars 5 stars
comments

Saved By The Bell Tab

-----------------------------------------------------------------------
		        Saved By The Bell - MiLToN
-----------------------------------------------------------------------

By: Brian  Brisax69@aol.com (listen to song for rhythms)

Intro guitar 1 2X
e|-0-0-4-4-5-5-4-4-7-7-5-5-4-4-5-5-3X-2-4-5-5-4-2-2-4-5-4-2-0-0--------|
B|---------------------------------------------------------------------|
G|---------------------------------------------------------------------|
D|---------------------------------------------------------------------|
A|---------------------------------------------------------------------|
E|---------------------------------------------------------------------|

Intro guitar 2      4X each
e|----------------------------------------------------------------------|
B|----------------------------------------------------------------------|
G|-9---------------9-9-9--------------------------9-----9---------------|
D|-9--11--7--9-----9-9-9--11-11-11--7-7-7--9-9-9--9-----9---------------|
A|-7--11--7--9-----7-7-7--11-11-11--7-7-7--9-9-9--7-----7---------------|
E|----9---5--7------------9--9--9---5-5-5--7-7-7------------------------|

Verse and chorus
e|---------------------------------------------------------------------|
B|---------------------------------------------------------------------|
G|---9-----------------------------------------------------------------|
D|---9----11----7----9-------------------------------------------------|
A|---7----11----7----9-------------------------------------------------|
E|--------9-----5----7-------------------------------------------------|
[ Tab from: http://www.guitartabs.cc/tabs/m/milton/saved_by_the_bell_tab_ver_2.html ]
Part after 2nd time through the song
e|---------------------repeat 3X----------------------------------------|
B|----------------------------------------------------------------------|
G|-----------6------4-------6-4-----------------------------------------|
D|-2~~--2-2--6-2-2--4?-2~~--6-4----2~~----------------------------------|
A|-2~~--2-2--4-2-2--2?-2~~--4-2----2~~----------------------------------|
E|-0~~--0-0----0-0-----0~~---------0~~----------------------------------|

Bridge guitar 1
e|-0-4-4-5-4-2-0-4-5-4-2-0-2-4-2-0--0-4-4-5-4-2-0-4-5-4-2-0-0-4-5-4-5-4-|
B|----------------------------------------------------------------------|
G|----------------------------------------------------------------------|
D|----------------------------------------------------------------------|
A|----------------------------------------------------------------------|
E|----------------------------------------------------------------------|

Bridge guitar 2 (clean upstrokes)
e|---------------------------------------------------------------------|
B|---------------------------------------------------------------------|
G|-9-------------------------------------------------------------------|
D|-9--11--7--9---------------------------------------------------------|
A|-7--11--7--9---------------------------------------------------------|
E|----9---5--7---------------------------------------------------------|


ending
e|---------------------------------------------------------------------|
B|---------------------------------------------------------------------|
G|-9-------------------------9-9-9-------------------------------------|
D|-9-11--7-9------2-2-2------9-9-9-------------------------------------|
A|-7-11--7-9------2-2-2------7-7-7-------------------------------------|
E|---9---5-7------0-0-0------------------------------------------------|
Comments