Milow - Ayo Technology Chords & Tabs

 

Ayo Technology Chords & Tabs

Milow Chords & Tabs

Version: 2 Type: Tab 0 ratings
1 star 2 stars 3 stars 4 stars 5 stars
comments

Ayo Technology Tab

Hi Guys,

it's a nice song, in my opinion much better than the original one


Capo 7


Verse & Chorous
                                      continue...
e|---0-x-0-0x0------0-x-0-0x0---------0-----------0------------------------|
B|---0-x-0-0x0------0-x-0-0x0---------2-----------1------------------------|
G|---0-x-0-0x0------0-x-0-0x0---------3-----------0------------------------|
D|---2-x-2-2x2------2-x-2-2x2---------0-----------2------------------------|
A|---2-x-2-2x2------2-x-2-2x2---------0-----------3------------------------|
E|---0-x-0-0x0------0-x-0-0x0---------0-----------0------------------------|



Bridge (2:31)
Beat: 1 & 2 & 3 & 4 &  || 1 & 2 & 3 & 4 &    1 & 2 & 3 & 4 &
e|------0---0---0---0--||---0---0---0---0--|---0---0---0---0--|
B|------0---0---0---0--||---3---3---3---3--|---1---1---1---1--|
G|------0---0---0---0-.||---2---2---2---2--|---0---0---0---0--|  repeat...
D|--------------------.||-0---0---0---0----|------------------|
A|---------------------||------------------|-3---3---3---3----|
E|----0---0---0---0----||------------------|------------------|



2:46
[ Tab from: http://www.guitartabs.cc/tabs/m/milow/ayo_technology_tab_ver_2.html ]
Guitar 1:
                                      continue...
e|---0-x-0-0x0------0-x-0-0x0---------0-----------0------------------------|
B|---0-x-0-0x0------0-x-0-0x0---------2-----------1------------------------|
G|---0-x-0-0x0------0-x-0-0x0---------3-----------0------------------------|
D|---2-x-2-2x2------2-x-2-2x2---------0-----------2------------------------|
A|---2-x-2-2x2------2-x-2-2x2---------0-----------3------------------------|
E|---0-x-0-0x0------0-x-0-0x0---------0-----------0------------------------|

Guitar 2:

Beat 1 & 2 & 3 & 4 & | 1 & 2 & 3 & 4 & | 1 & 2 & 3 & 4 & | 1 & 2 & 3 & 4 & |
e|-------0-----0-----|-----0-----0-----|-----0-----0-----|-----0-----0-----|
B|-----------3-------|---------3-------|---------3-------|---------3-------|
G|-------------------|-----------------|-----------------|-----------------|
D|-------------------|-----------------|-0---------------|-----------------|
A|-------------------|-----------------|-----------------|-3---------------|
E|---0---------------|-0---------------|-----------------|-----------------|

try to play guitar 1 and guitar 2 at the same time its quite fun. 
Tip:
while strumming the chords
you can play the b-string like this to get a good sound:

   1 & 2 & 3 & 4 |
B|-x---x-3-x-----|


Good luck and have fun!

Greetz
Comments