Mills Frank - Music Box Dancer Chords & Tabs

 

Music Box Dancer Chords & Tabs

Mills Frank Chords & Tabs

Version: 1 Type: Tab 1 rating
1 star 2 stars 3 stars 4 stars 5 stars
comments

Music Box Dancer Tab

#---------------------------------PLEASE NOTE---------------------------------#
#This file is the author's own work and represents their interpretation of the#
#song. You may only use this file for private study, scholarship, or research.#
#-----------------------------------------------------------------------------#
                     

Title:  Music Box Dancer
Artist: Frank Mills
~~~~~~~~~~~~~~~~~~~~~~~~
Transcribed by: Terry G. 
04/20/05 (tgood2@charter.net)
~~~~~~~~~~~~~~~~~~~~~~~~
Standard Tuning
4/4 time



                                                Hold                    
E---||---------------0-----0--3-----|--8--7--5--3--r--|
B---||---1--1-----1-----1--------1--|--------------e--|
G---||*--------0--------------------|--------------s--|
D---||*-----------------------------|--------------t--|
A---||------------------------------|-----------------|
E---||------------------------------|-----------------|
                                                                        

                                                                        
E---3--1-----------------1--|--0-----5--3--3--r--|
B---------3--0-----0--3-----|-----1-----------e--|
G---------------0-----------|-----------------s--|
D---------------------------|-----------------t--|
A---------------------------|--------------------|
E---------------------------|--------------------|
                                                                        

                                           Hold                         
E---------------0-----0--3-----|--8--7--5--3--r--|
B---1--1-----1-----1--------1--|--------------e--|
G---------0--------------------|--------------s--|
D------------------------------|--------------t--|
A------------------------------|-----------------|
E------------------------------|-----------------|
                                                                        

                                                                        
E---3--1-----------------1--|--------0--------r--|
B---------3--0-----0--3-----|--1--------1--1--e--|
G---------------0-----------|-----0-----------s--|
D---------------------------|-----------------t--|
A---------------------------|--------------------|
E---------------------------|--------------------|
                                                                        

                                                                        
E---8--5--1-----------0--5--|--3-----5--3--3--|
B------------1-----1--------|-----1-----------|
G---------------2-----------|-----------------|
D---------------------------|-----------------|
A---------------------------|-----------------|
E---------------------------|-----------------|
                                                                        

                                                                        
E---3--1-----------------1--|--0-----5--3--3--|
B---------3--0-----0--3-----|-----1-----------|
G---------------0-----------|-----------------|
D---------------------------|-----------------|
A---------------------------|-----------------|
E---------------------------|-----------------|
                                                                        

                                                                        
E---8--5--1-----------0--5--|--3-----5--3--3--|
B------------1-----1--------|-----1-----------|
G---------------2-----------|-----------------|
D---------------------------|-----------------|
A---------------------------|-----------------|
E---------------------------|-----------------|
                                                                        
[ Tab from: http://www.guitartabs.cc/tabs/m/mills_frank/music_box_dancer_tab.html ]
                                                                        
E---3--1--------------------|--------0--------r--|
B---------3--0-----0--3--0--|--1--------1--1--e--|
G---------------0-----------|-----0-----------s--|
D---------------------------|-----------------t--|
A---------------------------|--------------------|
E---------------------------|--------------------|
                                                                        

                                           Hold                         
E---------------0-----0--3-----|--8--7--5--3--r--|
B---1--1-----1-----1--------1--|--------------e--|
G---------0--------------------|--------------s--|
D------------------------------|--------------t--|
A------------------------------|-----------------|
E------------------------------|-----------------|
                                                                        

                                                                        
E---3--1-----------------1--|--0-----5--3--3--r--|
B---------3--0-----0--3-----|-----1-----------e--|
G---------------0-----------|-----------------s--|
D---------------------------|-----------------t--|
A---------------------------|--------------------|
E---------------------------|--------------------|
                                                                        

                                              Hold                      
E------------------0-----0--3-----|--8--7--5--3--r--|
B------1--1-----1-----1--------1--|--------------e--|
G------------0--------------------|--------------s--|
D---------------------------------|--------------t--|
A---------------------------------|-----------------|
E---------------------------------|-----------------|
                                                                        

                                                                        
E---3--1--------------------|--------0--------||
B---------3--0-----0--3--0--|--1--------1--1--||
G---------------0-----------|-----0-----------||
D---------------------------|-----------------||
A---------------------------|-----------------||
E---------------------------|-----------------||
                                                                        



========================================================================
==                       TABLATURE EXPLANATION                        ==
========================================================================

----------                ----------                ----t---
----5h8--- Hammeron       ----(8)--- Ghost          ----6--- Tap
----------                ---------- Note           --------
----5p8--- Pulloff        ----------                --------

----------                ----------                -----p--
----5/8--- Slide Up       -----x---- Dead           -----7-- Pop
----------                ---------- Note           --s-----
----5\8--- Slide Down     ----------                --5----- Slap 

----------                ||------|| Repeat         --------
----5~~~-- Vibrato        ||*----*||                ---5^--- Bend
----------                ||*----*||                --------
----------                ||------||                --------

----------                ----------                --------
-4:------- Time           ----------                --------
-4:------- Signature      ----------                --------
----------                ----------                --------

Rhythm:
  w = whole note            W = dotted whole
  h = half note             H = dotted half
  q = quarter note          Q = dotted quarter
  e = eighth note           E = dotted eighth
  s = sixteenth note        S = dotted sixteenth
  t = 32nd note             T = dotted 32nd
  x = 64th note             X = dotted 64th
  ^ = triplet

========================================================================
==               Created with BUCKET O' TAB for Windows               ==
==                  For more info email gse@his.com                   ==
========================================================================
Comments