Million Dead - Relentless Chords & Tabs

 

Relentless Chords & Tabs

Million Dead Chords & Tabs

Version: 1 Type: Tab 0 ratings
1 star 2 stars 3 stars 4 stars 5 stars
comments

Relentless Tab

   
RELENTLESS

(standard tuning)


intro riff A:

5B -0-0-0-0-0-0-0-0-0-0-0-0-0-0-0-0-|
4G -0-0-4-0-0-5-4-0-0-0-0-0-0-0-0-0-|
3D -4-4-4-4-4-4-4-4-5-5-5-5-5-7-7-7-|


intro riff B:

5B -0-0-0-0-0-0-0-0-5-5-5-5-5-7-7-7-|
4G -0-0-4-0-0-5-4-0-0-0-0-0-0-0-0-0-|
3D -4-4-4-4-4-4-4-4-5-5-5-5-5-7-7-7-|


verse riff:

5B -------5^0---------5^0---|
4G -0-4-0-----5-0-4-0-----5-|
3D -4-4-4-------4-4-4-------|


stop riff:

3D -2-2-2-  }
2A -2-2-2-  } fucked up noise
1E -0-0-0-  }


bridge riff:
[ Tab from: http://www.guitartabs.cc/tabs/m/million_dead/relentless_tab.html ]
6E -0----0----3----2-|
5B -0----2----3----2-|
4G -0----0----3----4-|
3D -2----2----0----4-|
2A -2----2----x----0-|
1E -0----0----3------|


finale riff:

6E --0-0-0-0-0-0--0-0-0-0-0-0--0-0-0-0-0-0---------------|
5B --0-0-0-0-0-0--0-0-0-0-0-0--0-0-0-0-0-0---------------|
4G -/9-9-9-9-9-9--x-x-X-X-x-x--0-0-0-0-0-0---------------|
3D -/9-9-9-9-9-9--4-4-4-4-4-4--5-5-5-5-5-5---0-0-0-0-0-0-|
2A -/7-7-7-7-7-7--6-6-6-6-6-6--5-5-5-5-5-5---x-x-x-x-x-x-|
1E --0-0-0-0-0-0----------------------------/8-8-8-8-7-5-|

song structure:

intro riff A on its own x2
intro riff A x8
verse riff x2
intro riff B x4
stop riff x4
verse riff x8
stop riff (more crazy) x8
bridge riff (with stops) x2
bridge riff x2
finale riff x4
intro riff B x8
end
Comments