Miller Roger - Whistle Stop Chords & Tabs

 

Whistle Stop Chords & Tabs

Miller Roger Chords & Tabs

Version: 1 Type: Tab 0 ratings
1 star 2 stars 3 stars 4 stars 5 stars
comments

Whistle Stop Tab

   
WHISTLE STOP
Roger miller

ROBIN HOOD FIRST THEME

-clemsouy@hotmail.com-
 -------------------------------------------
|For the rythm: it is BINARY (2/4 or 4/4...)|
|For the Whistle part: It is difficult to   |
|transcrib the good ryhthm for tab. Then try|
|playing while you listen to the song ;o)   |
 -------------------------------------------
..............................................
Whistle Part:

E--------------------------------|-----------------------|
B--------------------------------|-----------------------|
G--4--3-4--0---0----0h2--2-------|--4--3-4--0-----0--2---|
D----------------------------0---|--------------4--------|
A--------------------------------|-----------------------|
E--------------------------------|-----------------------|
           G        G        G        G
[ Tab from: http://www.guitartabs.cc/tabs/m/miller_roger/whistle_stop_tab.html ]
E----------------------------|-------------------||
B-------------------3-1------|------------------o||
G--4--3-4--0--0--0-------0---|-------0--2--4-0---||
D----------------------------|--0h4--------------||
A----------------------------|------------------o||
E----------------------------|-------------------||
   D>   G>          C>          G>           G.

Guitar accompaniment:

E---------------------------------------------
B----0---0----0---0----0---0----0---0----0---0
G----0---0----0---0----0---0----0---0----0---0
D----0---0----0---0----0---0----0---0----0---0
A--2--------2--------2--------2--------2------
E------3--------3--------3--------3--------3--

   G        G        G        G        G

E----2---------------------------------------||
B----3---3----0---0----1---1----0--0--------o||
G----2---2----0---0----0---0----0--0--0------||
D--0-----0----0---0----3---3----0--0--0------||
A------0----2--------3--------2-------2-----o||
E---------------3--------3--------3---3------||

   D        G        C        G       G

Comments