Millenium - Goodbye My Earth Chords & Tabs

 

Goodbye My Earth Chords & Tabs

Millenium Chords & Tabs

Version: 1 Type: Tab 0 ratings
1 star 2 stars 3 stars 4 stars 5 stars
comments

Goodbye My Earth Tab

   
                                          Artist - Millenium
                                         ********************
                                       Song - Goodbye My Earth  
                                      *************************
                                            Album - Ego 
                                           *************
                                        Tabbed By - Ayreon77
                                       **********************


http://www.millenium.art.pl/index1.php



        There Is 2 Guitars At The Beginning Here, Its Similar To The Notes
                 In The Bridge Part Some Are A Little. Different, 
                        But If Someone Wants To Play Them 
                 I,m Sure You Can Figure Them In The Right Order



00:08                          s
[-----------------|---------6-8\10-13-10---s--|-----------|---------]
[----------rbp----|----s--8--------------10\6-|--s--6-8---|--h--6-8-]
[---h--3-5-5--3---|-3-5\7---------------------|-5\7-----7-|-6-7-----]
[--3-5----------5-|---------------------------|-----------|---------]
[-x---------------|---------------------------|-----------|---------]
[-----------------|---------------------------|-----------|---------]


[-11----------------11----|-13-11-------------------]
[----11----------11----11-|-------11----11----------]
[-------12----12----------|----------12----12-------]
[----------13-------------|-------------------13-12-]
[-------------------------|-------------------------]
[-------------------------|-------------------------]

fat bit
00:22
[-15-11----------11-13-11-----------------------|------------------------]
[-------11----11----------11----13-11-----11----|---s----b-rp---------10-]
[----------12----------------12-------14-----14-|-12\14-12---10-12-10----]
[-----------------------------------------------|------------------------]
[-----------------------------------------------|------------------------]
[-----------------------------------------------|------------------------]

                    00:31   
[------------------|-10-6-8---6------------------|----------------10-]
[--b-rp---------s--|--------6---10-6-----6-------|-------------11----]
[-12---10-12--10\7-|-----------------7-8---8-7---|------s---10-------]
[------------------|---------------------------8-|-10-10\12----------]
[------------------|-----------------------------|-------------------]
[------------------|-----------------------------|-------------------]
 
                                           hold
                                           bends
00:35                                    b  |  |  rb   h
[--b--rp------|----13---b--rp------|----15-15-15-15--14-15-17-]
[-13----11-13-|-11-----13----11-13-|-11-----------------------]
[-------------|--------------------|--------------------------]
[-------------|--------------------|--------------------------]
[-------------|--------------------|--------------------------]
[-------------|--------------------|--------------------------]

00:42
[-18-17-15--------15-13--------13----|--------------------]
[----------15-15--------15-15-----16-|--15-13----------13-]
[------------------------------------|-x---------14-15----]
[------------------------------------|--------15----------]
[------------------------------------|--------------------]
[------------------------------------|--------------------]

                                                     br
[-----------h---13---s--------|-----h---13---s------17-15-13--b-r---h---17]
[---------13-15----15\13------|13-13-15----15\13-------------15---13-15---]
[--h---15----------------15-12|------------------15-----------------------]
[15-17------------------------|-------------------------------------------]
[-----------------------------|-------------------------------------------]
[-----------------------------|-------------------------------------------]

00:59
   br                      fast bit
[-17-15-------15-13----------18-15-------------|----------------------]
[-------15-15-------15-15-18-------18-16-------|-18-16----------------]
[----------------------------------------17-15-|-------17-15----------]
[----------------------------------------------|-------------17-15----]
[----------------------------------------------|-------------------18-]
[----------------------------------------------|----------------------]


[--------------------b-rp----------------|--------------------------]
[------------s---13-13---11-------p------|------------p-------------]
[---h---10-12\14------------12--14-12----|---s---10-12-10-12-~~~~~~-]
[-10-12-------------------------------15-|-10\12--------------------]
[----------------------------------------|--------------------------]
[----------------------------------------|--------------------------]


-----------------------------------------------
01:18
Play This With The Verse Below
 Bb                     F          Gm                   Dm
[--------h------------|-----------|-------------------|-5--5-----]
[-------3-5-3--h------|----h------|-3----h-p----------|-6----6---]
[-------3-5-3-3-5-3---|---2-3-2---|-3---3-5-3---------|-7------7-]
[--s--3-------3-5-3---|---------3-|-5---------5-3---3-|-7--------]
[-3\5---------------3-|-3---------|-5-------------5---|-5--------]
[---------------------|-----------|-3-----------------|----------]

 Eb                            Bb                     C             D  h
[----------------------------|-----------------------|-----h-p----|-2-2-3-2-]
[----------h--p--------------|-8---------------------|5---4-6-4---|-3-------]
[---------8-10-8--h--p-------|-9---------------h--p--|5-5-------5-|-2-------]
[---s---8--------8-10-8----8-|-10--------8-10-8-10-8-|5-----------|-0-------]
[--8\10-----------------10---|-10---s----------------|3-----------|---------]
[----------------------------|-8---8\10--------------|------------|---------]

01:18
VERSE 1
********
Bb                       F
When you grow, You don,t care about your home
          Gm                     Dm
When it's time, To die you still struggle for your life
         Eb                     Bb
But it's all, In vain, Bringing only tears and pain
       Cm
When I think to myself
       D
When I think to myself


-----------------------------------------------
01:52
BRIDGE
*******
 I'm older and colder,      And I feel only stress
[-------------------------|----------------------------]
[-----------------------6-|--------------------------1-]
[--------------------7----|-----------------------2----]
[----8--------------------|-------3--------------------]
[-------------------------|----------------------------]
[-------------------------|----------------------------]

Being weaker and weaker,     On to my soul a rest
[---------------------------|--------------------------]
[-------------------------3-|--------------------------]
[----------------------3----|------------------------2-]
[-----5---------------------|---------------------3----]
[---------------------------|------5-------------------]
[---------------------------|--------------------------]

I'm with holding my feelings,     And with holding my dreams
[-------------------------------|-------------------------------]
[-------------------------------|-------------------------------]
[-----------------------------3-|-------------------------------]
[--------------------------5----|-----------------------------3-]
[--------6----------------------|--------------------------5----]
[-------------------------------|----------6--------------------]

When I think to myself,     When I think to myself
[-------------------------|--------------------------]
[-------------------------|--------------------------]
[-------------------------|------------------------2-]
[-----------------------5-|---------------------4----]
[--------------------6----|--------5-----------------]
[------8------------------|--------------------------]


-----------------------------------------------
02:30
Acoustic
CHORUS
********
    Gm     Dm         Eb   Cm
Goodbye My Earth, Goodbye
    Gm       Bb       Cm    F
Its Time, To Fly From Here
    Gm     Dm         Eb   Cm
Goodbye My Earth, Goodbye
    Gm           F     Eb
I'm Leaving This Crazy World

[ Tab from: http://www.guitartabs.cc/tabs/m/millenium/goodbye_my_earth_tab.html ]
-----------------------------------------------
03:04
The Chords Is A Distorted Guitar - Barred Chords Sound Better
VERSE 3
********
Bb
Were all the skys are rainbows
        F
Show me now were they dissapeared
          Gm
Where the distance galaxys and planets
           Dm
Close your eyes and hold your breath
        Eb
Were no standing ovation
       Bb
All he looks at is graves
       Cm
When I think to myself
       D
When I think to myself


-----------------------------------------------
03:39
Repeat The Notes From The Bridge Above.

BRIDGE
*******
    Bb                 F
And when, My Heart, My flesh and bones will die
   Gm                            Dm
My thoughts, My Dreams, Will say no and dissapear
        Eb                        Bb
In your own imagination, You will see my angry face
            Cm
Then you'll think to yourself
            D
Then you'll think to yourself


-----------------------------------------------
04:17
CHORUS
********
    Gm     Dm         Eb   Cm
Goodbye My Earth, Goodbye
    Gm       Bb       Cm    F
Its Time, To Fly From Here
    Gm     Dm         Eb   Cm
Goodbye My Earth, Goodbye
    Gm           F     Gm
I'm Leaving This Crazy World


-----------------------------------------------
04:51
CHORUS
********
    Gm     Dm         Eb   Cm
Goodbye My World, Goodbye
                      Goodbye My World
    Gm       Bb       Cm   F            
Its Time, To Fly From Here
                      Goodbye My Earth
    Gm     Dm         Eb   Cm 
Goodbye My Earth, Goodbye
                      Goodbye My World
     Gm           F     Gm
Just Leaving This Crazy World


-----------------------------------------------
05:22
KEYBOARD SOLO - Gm C Gm C Gm C
**************  Bb D
-----------------------------------------------
06;19
ACOUSTIC SLIDE GUITAR
**********************
[--------------------------]
[--s--5---5------s---7---7-]
[-3\5---5-------5\7----7---]
[--------------------------]
[--------------------------]
[--------------------------]X2


-----------------------------------------------
06:48
SYNTH 
-----------------------------------------------

07:17
GUITAR SOLO
************
[-----------3--s--6-----|--p-s--|-------------------|-------------------]
[-------3-----6\8---8-6-|-8-6\5-|-------------------|--------------h--5-]
[---s-----5-------------|-------|-3-3-5-3--p----3---|-h-p-s----h--3-5---]
[-3-\5------------------|-------|-3-3-5-3-5-3-5---5-|3-5-3\2--3-5-------]
[-----------------------|-------|-------------------|-------------------]
[-----------------------|-------|-------------------|-------------------]

This Is A Tricky Part
07:25  h   p         p         p         p
[--h--6-8-8-6--p---10-6--p--|-8-6--p---10-6--p--|--------------]
[-6-8---------8-6-------8-6-|-----8-6-------8-6-|-This---------]
[---------------------------|-------------------|--Part--------]
[---------------------------|-------------------|----Is--------]
[---------------------------|-------------------|-----to hard--]
[---------------------------|-------------------|-------to tab-]

07:30                          s    b  b  br
[-----------6---------------10-\-|-13-13-13-12-13----]
[---------3---6------------------|----------------13-]
[-------3-------7----s---11------|-------------------]
[--s--3-----------8-8\10---------|-------------------]
[-3\5----------------------------|-------------------]
[--------------------------------|-------------------]

07:39
[-18----13-------------|------------------------]
[----13-------15-------|---h--p--s-----p--------]
[----------15-------12-|-10-12-10\9--10-9-------]
[----------------15----|------------------12-10-]
[----------------------|------------------------]
[----------------------|------------------------]

07:43                                    
[--------------------------------------]
[---------h-----p------------p---------]
[---h---15-17-17-15---p----19-15---p---]
[-15-17-------------17-15--------17-15-]
[--------------------------------------]
[--------------------------------------]

    p           p             p           p            
[-18-15---p---20-15---p---|-18-15---p---20-15---p---]
[-------18-15-------18-15-|-------18-15-------18-15-]
[-------------------------|-------------------------]
[-------------------------|-------------------------]
[-------------------------|-------------------------]
[-------------------------|-------------------------]

   b r
[-18---15-18-15----------------|---------------br------------------]
[---------------15-18-15-------|---------h----18-15----------------]
[------------------------15----|---h---15-17--------14-12-11-------]
[---------------------------15-|-15-17-----------------------12----]
[------------------------------|--------------------------------12-]
[------------------------------|-----------------------------------]

07:51
[------------------|----------------|------s------s-------------------------]
[------------------|----------------|-6---6\8----8\11-----------p----h---13-]
[------8-8---------|----------------|---7-----10------12-10-9-10-9-10-12----]
[--h---8-8---p-----|--h--p-s----s---|---------------------------------------]
[-8-10-----10-8-10-|-8-10-8\7--8\10-|---------------------------------------]
[------------------|----------------|---------------------------------------]

                                brp
[-----b--b---p-----p-----------12--10----------------]
[-11-13-13-13-11-13-11------11-----------------------]
[----------------------12-------------12-10-9-10-----]
[------------------------------------------------10--]
[----------------------------------------------------]
[----------------------------------------------------]

08:04                                            br
[----------------|-----------s---|-------15-18-17---------------------------]
[-------------11-|11-13-11-13\18-|-15-18----------18-15-18-15---------p-----]
[-------10-12----|---------------|----------------------------17-14-15-14-12]
[-10-12----------|---------------|------------------------------------------]
[----------------|---------------|------------------------------------------]
[----------------|---------------|------------------------------------------]

08:09
[----------------------|-----------b--b-rp-----p---------]
[----------------------|---h---11-13-13---11-13-11----11-]
[-----------12-9-------|-10-12---------------------12----]
[-12-12--12------10-10-|---------------------------------]
[----------------------|---------------------------------]
[----------------------|---------------------------------]

08:15                                                                    b
[---------------------------|-------------11------------------h---11----14~~]
[13-11-10------11-10--------|-------11-13-11------------h---11-13-11--------]
[---------12---------12-10-9|-10-12----------12-12-10-10-12----------12-----]
[---------------------------|-----------------------------------------------]
[---------------------------|-----------------------------------------------]
[---------------------------|-----------------------------------------------]

08:22
[------------------------------------|------------------------------------]
[-15------------15--15------------15-|-19------------19--19------------19-]
[---15--------15------15--------15---|---19--------19------19--------19---]
[-----15-12-15----------15-12-15-----|-----19-16-19----------19-16-19-----]
[------------------------------------|------------------------------------]
[------------------------------------|------------------------------------]


[--b---b--b---b---b--b---b---b--b----------]
[-18--18-18--18--18-18--18--18-18-17-18----]
[---------------------------------------17-]
[------------------------------------------]
[------------------------------------------]
[------------------------------------------]


[---------------------------------------]
[---------------------------------------]
[---------------------------------------]
[----10-8-------10-8-------10-8----10-8-]
[-10-10-8-10-10-10-8-10-10-10-8-10-10-8-]
[---------------------------------------]


[-----10---10-------10----10----|-------14----14--------14----14---14-15-]
[--s------------s---------------|---s---------------s--------------------]
[-8\10---10----8\10----10----10-|-12\14----14-----12\14----14------------]
[-------------------------------|----------------------------------------]
[-------------------------------|----------------------------------------]
[-------------------------------|----------------------------------------]



A Very Hard Song To Do. Hope Someone Finds It Useful. A Great Tune

Enjoy.............
Comments