Millencolin - Vixen Chords & Tabs

 

Vixen Chords & Tabs

Millencolin Chords & Tabs

Version: 1 Type: Bass Tab 0 ratings
1 star 2 stars 3 stars 4 stars 5 stars
comments

Vixen Bass Tab

VERSE
G|----------------------------------------4-4-2-2-4-4-----------------| 
D|------5-5-2-2-5-5-----5-5-2-2-5-5---2-2------------------2-2-3-3-2-2| 
A|--3-3-------------3-3--------------------------------0-0------------| 
E|--------------------------------------------------------------------| 

G|-----------------------------------------4-4-2-2-4-4----------------| 
D|------5-5-2-2-5-5-----5-5-2-2-5-5---2-2------------------2-2-3-3-2-2| 
A|--3-3-------------3-3--------------------------------0-0------------| 
E|--------------------------------------------------------------------| 

G|-------------------4-4-2-2------------------------------------------|
D|---------------2-2------------------2-2-3-3-2-2---------------------|
A|---3--3--3--3-----------------0-0-----------------------------------|
E|--------------------------------------------------------------------|
[ Tab from: http://www.guitartabs.cc/tabs/m/millencolin/vixen_btab.html ]
G|-------------------4-4-2-2------------------------------------------|
D|---------------2-2------------------2-2-3-3-2-2---------------------|
A|---3--3--3--3-----------------0-0-----------------------------------|
E|------------------------------------------------333333333333333-----|

CHORUS
G|--------------------------------------------------------------------|
D|--------------------------------------------------------------------|
A|-3--3-3-------------------------------------------------------------|
E|--------1--1-1--1-1-1-1--5--5-5-----3-3-3--3-3-3-3------------------|

INTERLUDE
G|--------------------------------------------------------------------|
D|--------------------------------------------------------------------|
A|--------------------------------------------------------------------|
E|--1------------3-----------0-----------5---------1------------3-----|

LAST CHORUS
G|--------------------------------------------------------------------|
D|--------------------------------------------------------------------|
A|--3-3-3-3-3-3-3-3---------------------------------------------------|
E|------------------1-1-1-1-1-1-1-1-5-5-5-5-5-5-5-5-3-3-3-3-3-3-3-3---|
Comments