Millencolin - Use Your Nose Chords & Tabs

 

Use Your Nose Chords & Tabs

Millencolin Chords & Tabs

Version: 1 Type: Bass Tab 0 ratings
1 star 2 stars 3 stars 4 stars 5 stars
comments

Use Your Nose Bass Tab

   
band:millencolin
song:use your nose
album:use you nose/melancholy
tabbed by:yury lizunov pimpbassist@hotmail.com
intro
g------------------------------------------------
d------------------------------------------------
a----2-3-5-3-2-0-------------2-3-5-3-2-0---------
e-3-3-----------1-1-333-5-3-3------------1-3-0-3-

right after
g--------------rr
d--------------ee
a--------------ss
e-1111111133333tt
************************************************
g------------------------------------------------
d------------------------------------------------
a----2-3-5-3-2-0-------------2-3-5-3-2-0---------
e-3-3-----------1-1-333-5-3-3------------1-3-0-3-

g-------------------------------------------
d-------------------------------------------
a----2-3-5-3-2-0-------------2-3-5-3-2-0----
e-3-3-----------1-1-333-5-3-3------------3-1
*************************************************
repeat everything inside * 1 time and rest for long time
[ Tab from: http://www.guitartabs.cc/tabs/m/millencolin/use_your_nose_btab.html ]
then
g---------------------------------
d---------------------------------
a-----------------1111111133333333 repeat
e-1111111133333333----------------

*************************************************
g-------------------------------------------
d-------------------------------------------
a----2-3-5-3-2-0-------------2-3-5-3-2-0----
e-3-3-----------1-1-333-5-3-3------------3-1

g------------------------------------------------
d------------------------------------------------
a----2-3-5-3-2-0-------------2-3-5-3-2-0---------
e-3-3-----------1-1-333-5-3-3------------1-3-0-3-
*************************************************
repeat everything inside * 1 time, yes this time its reversed
remember the to rest

g---------------------------------
d---------------------------------
a-----------------1111111133333333
e-1111111133333333----------------
repeat and on the second time add 33333333 on the A string

g-------------------------------------------
d-------------------------------------------
a----2-3-5-3-2-0-------------2-3-5-3-2-0----
e-3-3-----------1-1-333-5-3-3------------3-1
dont repeat


Comments