Millencolin - Twenty Two Chords & Tabs

 

Twenty Two Chords & Tabs

Millencolin Chords & Tabs

Version: 1 Type: Bass Tab 0 ratings
1 star 2 stars 3 stars 4 stars 5 stars
comments

Twenty Two Bass Tab

Song: Twenty Two
Band: Millencolin
Album: For Monkeys
Tabbed By: Fabricio Oliveira (bassdude@zipmail.com.br)
Member of the Bass Tab Archive Tabbing Army ~ http://www.basstabarchive.com

 Ok guys, I tried to tab this song in the correct rhythm but it's a little hard 
 to write it down, so listen to the song and get the correct timing and rythm by
 yourselves. Thanks

 
 0:00 - Intro: Play the E---5--- note a few times at the same time when guitar plays.
               Then you end the intro with A---5-5-5-5-5-5-5-5-5---, Play it fast.


 0:21 - Part A: 3x
G------------------------------------------------------
D------------------------------------------------------
A----------3--3-3--3-3-3---------3--3-3--3-3-3---------
E--5-5-5-5---------------1-1-1-1-----------------------


 0:32 - Part B
G------------------------------------------------------------
D------------------------------------------------------------
A----------3--3-3--3-3-3-------------------------------------
E--5-5-5-5---------------1-1-1-1-1-1-1-1-3-3-3-1-1-1-1-------


 0:38 - Part C: 2x
G------------------------------------------------------------
D------------------------------------------------------------
A--------------------------------------------5-5-5--5-5-5----
E--5-5-5--5-5-5--1-1-1--1-1-1--3-3-3--3-3-3------------------

 On the second time you play Part C, keep playing the E---5--- note for a while.

 0:55 - Part D: 3x
G--------------------------------------------------
D--------------------------------------------------
A--2-2-2-2--5--5--5-5-5----------5--5--5-5-5-------
E------------------------3-3-3-3-------------------

[ Tab from: http://www.guitartabs.cc/tabs/m/millencolin/twenty_two_btab.html ]
 1:06 - Part E
G------------------------------------------------------------
D------------------------------------------------------------
A--2-2-2-2--5--5--5-5-5--------------------------------------
E-----------------------3-3-3-3-3-3-3-3--5-5-5-5--3-3-3-3----


 1:12 - Part F: 2x
G------------------------------------------------------------
D------------------------------------------------------------
A--2-2-2--2-2-2--------------------------------7-7-7-7-------
E----------------3-3-3--3-3-3----5-5-5--5-5-5----------------


 1:26 - Part G: 6x
G-------------------------
D-------------------------
A--2--4--5--7-------------
E-------------------------

 
 1:48 - Part H (Guitar Solo Part): 3x
G--------------------------------------------------
D--------------------------------------------------
A--4-4-4-4-----------------------2-2--2-2-2--------
E-----------0-0--0-0-0--5-5-5-5--------------------


 1:59 - Part I
G--------------------------------------------------
D--------------------------------------------------
A--4-4-4-4-----------------------------------------
E-----------0-0--0-0-0--5-5-5-5--2x-2x-2-----------


 2:05 - Part J (Play this part until 2:18 then you play E---2-2-2-2-2-2-2-2-2x---)
G--------------------------
D--------------------------
A--4-4-4-4-4-4-4-4-4-4-----
E--------------------------


 2:19 - Part K: 4x
G--------------------------------------------------------------
D--------------------------------------------------------------
A--4-4-4--4-4-4----------------2-2-2--2-2-2--------------------
E----------------5-5-5--5-5-5----------------2-2-2--2-2-2------


 2:48 - Part L (The last one)
G----------------
D----------------
A--7--6--4------- and let it ring...
E----------------

 
 Ok, that's it. I hope you all enjoy this song.

Comments