Millencolin - Trendy Winds Chords & Tabs

 

Trendy Winds Chords & Tabs

Millencolin Chords & Tabs

Version: 1 Type: Bass Tab 0 ratings
1 star 2 stars 3 stars 4 stars 5 stars
comments

Trendy Winds Bass Tab

-----------------------------------------------------------------------
                        Trendy Winds - Millencolin
-----------------------------------------------------------------------

Riff 1
|---------------------------------------------------|
|*-------------------------------------------------*|
|*-4--4--4--4-4-4-4-4--4-4-4-2-2-2-2/7--7-7--7-7-7-*|
|---------------------------------------------------|

|---------------------------------|
|---------------------------------|
|---------------------------------|
|-5-5-5-5-5-5-5-5-7-7-7-7-7-7-7-7-| then riff 1, then this riff again.

|-----------------------------------------------------------------|
|-----------------------------------------------------------------|
|-----------------------------------------------------------------|
|-5-5-5-5-5-5-5-5-7-7-7-7-7-7-7-7-4-4-4-4-4-4-4-4-5-5-5-5-5-5-5-5-|
[ Tab from: http://www.guitartabs.cc/tabs/m/millencolin/trendy_winds_btab.html ]
|----------------------------------------|
|----------------------------------------|
|----------------------------------------|
|-5-5-5-5-5-5-5-5-7-7-7-7-7-7-7-7--7-5-7-|

|-------------------------------------------------------------------|
|*-----------------------------------------------------------------*|
|*-----------------------------------------------------------------*|
|--9-9-9-9-9-9-9-9-5-5-5-5-5-5-5-5-7-7-7-7-7-7-7-7-7-7-7-7-7-7-7-7--|

Repeat from top

During solo.

|-------------------------------------------------------------------|
|*-----------------------------------------------------------------*|
|*-----------------------------------------------------------------*|
|--5-5-5-5-5-5-5-5-5-5-5-5-5-5-5-5-7-7-7-7-7-7-7-7-7-7-7-7-7-7-7-7--|

|-------------------------------------------------------------------|
|*-----------------------------------------------------------------*|
|*-----------------7-7-7-7-7-7-7-7---------------------------------*|
|--9-9-9-9-9-9-9-9-----------------5-5-5-5-5-5-5-5-7-7-7-7-7-7-7-7--|

|------------------------------------|
|*----------------------------------*|
|*--------------------------7-7-7-7-*|
|--9-9-9-9-9-9-9-9--7-7-7-7----------|



Comments