Millencolin - The Ballad Chords & Tabs

 

The Ballad Chords & Tabs

Millencolin Chords & Tabs

Version: 1 Type: Tab 1 rating
1 star 2 stars 3 stars 4 stars 5 stars
comments

The Ballad Tab

   
#-----------------------------------------------------------------------------#
#-- File created with Instab - http://www.pconline.com/~smcarey/instab.html --#
#-----------------------------------------------------------------------------#

Author/Artist: Millencolin
Title: The ballad
Album: Pennybridge Pioneers
Transcribed by: Salvatore Spanò
Email: salspan17@virgilio.it

This song needs only of 4 chords:
G: 320033
Em:022000
Am: x02210
C: x32010
those chords are trhoughout the song, listen the cd to 
understand the rithm.
Then Guitar 2 enter with fat distorsion and plays :
G5: 355xxx
E5: 022xxx
A5: x022xx or 577xxx
C5: x355xx
 over those chord a third guitar plays like this:

-------------------------|-----------------------|-------------------------|--
-------------------------|-----------------------|-------------------------|--
-12-12-12-12-12-12-12-12-|11-11-11-11-11-11-11-11|-12-12-12-12-12-12-12-12-|--
-------------------------|-----------------------|-------------------------|--
-10-10-10-10-10-10-10-10-|-9--9--9--9--9--9--9--9|-10-10-10-10-10-10-10-10-|--
-------------------------|-----------------------|-------------------------|--
                                                                              

-------------------------|-------------------------|------------------------|-
-------------------------|-------------------------|------------------------|-
-1111-11-11-11-11-11-11--|-12-12-12-12-12-12-12-12-|-11-11-11-11-11-11-11-11|-
-------------------------|-------------------------|------------------------|-
-9--9--9--9--9--9--9--9--|-10-10-10-10-10-10-10-10-|--9--9--9--9--9--9--9--9|-
-------------------------|-------------------------|------------------------|-
                                                                              
[ Tab from: http://www.guitartabs.cc/tabs/m/millencolin/the_ballad_tab.html ]
-------------------------|-------------------------|--------------|-----------
-------------------------|-------------------------|--------------|-----------
-12-12-12-12-12-12-12-12-|-11-11-11-11-11-11-11-11-|--9--9--9--9--|-x-2-------
-------------------------|-------------------------|--------------|-----------
-10-10-10-10-10-10-10-10-|--9--9--9--9--9--9--9--9-|--7--7--7--7--|-----------
-------------------------|-------------------------|--------------|-----------
                                                                      then    

-------------------------|-------------------------|------------------------|-
-------------------------|-------------------------|------------------------|-
-12-12-12-12-12-12-12-12-|-11-11-11-11-11-11-11-11-|-12-12-12-12-12-12-12-12|-
-------------------------|-------------------------|------------------------|-
-10-10-10-10-10-10-10-10-|--9--9--9--9--9--9--9--9-|-10-10-10-10-10-10-10-10|-
-------------------------|-------------------------|------------------------|-
                                                                              

-------------------------|-------------------------|------------------------|-
-------------------------|-------------------------|------------------------|-
-11-11-11-11-11-11-11-11-|-12-12-12-12-12-12-12-12-|-11-11-11-11-11-11-11-11|-
-------------------------|-------------------------|------------------------|-
--9--9--9--9--9--9--9--9-|-10-10-10-10-10-10-10-10-|--9--9--9--9--9--9--9--9|-
-------------------------|-------------------------|------------------------|-
                                                                              

-------------------------|-------------------------|--------------------------
-------------------------|-------------------------|--------------------------
-12-12-12-12-12-12-12-12-|-14-14-14-14-14-14-14-14-|--------------------------
-------------------------|-------------------------|--------------------------
-10-10-10-10-10-10-10-10-|-12-12-12-12-12-12-12-12-|--------------------------
-------------------------|-------------------------|--------------------------
                                                                              

Comments