Millencolin - The Ballad Chords & Tabs

 

The Ballad Chords & Tabs

Millencolin Chords & Tabs

Version: 1 Type: Bass Tab 0 ratings
1 star 2 stars 3 stars 4 stars 5 stars
comments

The Ballad Bass Tab

Band:Millencolin
song: The Ballad	
Album: Pennybridge Pioneers
Tabbed by RG Callaghan

Of course there is nothing during the accoustic verses
(accoustic guitar by Nikola-the singer and bassist-)

During the chorus of the accoustic part(let ring)

g-----------------------------
d-----------------------------
a-----------2---------5--------3-
e--3---------------------------
[ Tab from: http://www.guitartabs.cc/tabs/m/millencolin/the_ballad_btab.html ]
second part;transition (at 2'02'')
let ring each note (listen to the song
to get the intervals between each note)

g------------------------------
d------------------------------
a------------2-3-4-5----------
e--3--5--3---------------------

Main Riff during the second part

g-----------------------------
d-----------------------------
a-----------22222222--55555555--33333333--
e--33333333---------------------------


That's it! It's a good song taken from the excellent 
album pennybridge pioneers!
Any comment or suggestion at 
Callaghan666@yahoo.fr

Comments