Millencolin - Story Of My Life Chords & Tabs

 

Story Of My Life Chords & Tabs

Millencolin Chords & Tabs

Version: 2 Type: Bass Tab 0 ratings
1 star 2 stars 3 stars 4 stars 5 stars
comments

Story Of My Life Bass Tab

Song/CD: Story of my Life (Life on a plate)
Band/Performed by: Millencolin / Nikolas
Tabbed by/date: Carlos Pinos & Vick Garbugli 99/05/17
Tuning/others: standard 4 strings


Intro(4X)

G:--------------------------------------------
D:----------------------------12-10-9------
A:------------------8-8-10------------------
E:---8-8-guitar-----------------------------

Verse(4X)
[ Tab from: http://www.guitartabs.cc/tabs/m/millencolin/story_of_my_life_btab_ver_2.html ]
G:-------------------------------------------
D:-------------------------------------------
A:-----7-5-7--7-5-7---------5-7-7-5-----
E:---5--------5----------5-5-----------5---

Pre-Chorus

G:-------------------
D:-------------------
A:---5>--8>-------
E:-------------------

Chorus(4X)

G:--------------------------
D:--------------------------
A:---3>--8>--5>---------
E:-------------------3>----

Verse
Pre-Chorus
Chorus

Then

G:-----------------------------------------------
D:------------------------------------------------
A:---------8-8--7-7--10-10--10-10--8-8-----
E:---8-8-----------------------------------------

Pre-Chorus
Chorus played until the end
Comments