Millencolin - Shut You Out Chords & Tabs

 

Shut You Out Chords & Tabs

Millencolin Chords & Tabs

Version: 1 Type: Bass Tab 0 ratings
1 star 2 stars 3 stars 4 stars 5 stars
comments

Shut You Out Bass Tab

This is my first tab, so im sorry if its bad but the good thing is the song is pretty good

Artist: Millencolin
Song: Shut You Out
Album: Kingwood
Year: 2005
Track Number: 4

Intro (0:03)
G|----------------------------------------------------------|x4
D|----------------------------------------------------------|
A|-44444444-------------------------------------------------|
E|----------44444444-6666|6666|6666|6666|-------------------|

Verse (0:28)
G|----------------------------------------------------------|x4
D|----------------------------------------------------------|
A|-44444444-------------------------------------------------|
E|----------44444444-6666|6668|6666|6666|-------------------|

Chorus (0:55)
G|---------------------------------------|x4----------------|
D|---------------------------------------|------------------|
A|-44444444------------------------------|------------------|
E|----------44444444-6666|6666|6666|6666||-//4--------------|

Verse (1:20)
G|----------------------------------------------------------|x4
D|----------------------------------------------------------|
A|-44444444-------------------------------------------------|
E|----------44444444-6666|6668|6666|6666|-------------------|
[ Tab from: http://www.guitartabs.cc/tabs/m/millencolin/shut_you_out_btab.html ]
Chorus (1:46)
G|---------------------------------------|------------------|x4
D|---------------------------------------|------------------|
A|-44444444------------------------------|------------------|
E|----------44444444-6666|6666|6666|6666||------------------|

Bridge1 (2:11)
G|----------------------------------------------------------|x3
D|----------------------------------------------------------|
A|-4-------4------------------------------------------------|
E|---4-6-4---4-6666|6666|6666|6666|-------------------------|

G|----------------------------------------------------------|
D|----------------------------------------------------------|
A|-4-------4------------------------------------------------|
E|---4-6-4---4-6666|6666|66666------------------------------|

Chorus (2:40)
G|---------------------------------------|------------------|x4
D|---------------------------------------|------------------|
A|-44444444------------------------------|------------------|
E|----------44444444-6666|6666|6666|6666||------------------|

Bridge 2 (3:05)
G|----------------------------------------------------------|x3
D|----------------------------------------------------------|
A|-4-4-4----------------------------------------------------|
E|-------4-4-4-6666|6666|6666|6666|-------------------------|

G|----------------------------------------------------------|
D|----------------------------------------------------------|
A|-4-4-4----------------------------------------------------|
E|-------4-4-4-6~~------------------------------------------|
Comments