Millencolin - Replay Chords & Tabs

 

Replay Chords & Tabs

Millencolin Chords & Tabs

Version: 1 Type: Tab 0 ratings
1 star 2 stars 3 stars 4 stars 5 stars
comments

Replay Tab

   
-----------------------------------------------------------------------------
			     Replay - Millencolin
-----------------------------------------------------------------------------
Tabbed by:NOfxmike	
Email:someone028@excite.com

Tuning:standard
Intro:
     guitars 1+2
e|-----------------------------------------------------------|
B|-----------------------------------------------------------|
G|-----------------------------------------------------------|
D|----9--7----------9--7--------9--7-------------------------|
A|----------5--7----------------------5---7--9--7------------|
E|-----------------------------------------------------------|
                  guitar 3
                e|-------------------------------------------|
                B|-------------------------------------------|
                G|-------------------------------------------|
                D|--9--9-9-9--9--9-9-9-----5--5-5-5--5--5-5-5|
                A|--9--9-9-9--9--9-9-9-----5--5-5-5--5--5-5-5|
                E|--7--7-7-7--7--7-7-7-----3--3-3-3--3--3-3-3|
guitars 1+2
e|-----------------------------------------------------------|
B|-----------------------------------------------------------|
G|-----------------------------------------------------------|
D|----9--7----------9--7--------9--7-------------------------|
A|----------5--7----------------------5---7--9---------------|
E|-----------------------------------------------------------|
                  guitar 3
                   A5                      E5
               e|--------------------------------------------|
               B|--------------------------------------------|
               G|--------------------------9--9-9-9--9--9-9-9|
               D|--7--7-7-7--7--7-7-7------9--9-9-9--9--9-9-9|
               A|--7--7-7-7--7--7-7-7------7--7-7-7--7--7-7-7|
               E|--5--5-5-5--5--5-5-5------------------------|
      guitars 1+2
e|-----------------|
B|-----------------|
G|-----------------|
D|-----9--7--------|
A|-----------5--7--|
E|-----------------|repeat x2

Verse 1:

   guitar 3
                     Another fairytale
e|-------------------------------------------|
B|-------------------------------------------|
G|-------------------------------------------|
D|--9--9-9-9--9--9-9-9--5--5-5-5--5--5-5-5---|
A|--9--9-9-9--9--9-9-9--5--5-5-5--5--5-5-5---|
E|--7--7-7-7--7--7-7-7--3--3-3-3--3--3-3-3---|
  PM  |-----|   |-----|   |-----|   |-----|
              about these endless feelings 
  
e|--------------------------------------------|
B|--------------------------------------------|
G|--7--7-7-7--7--7-7-7------------------------|
D|--7--7-7-7--7--7-7-7--7--7-7-7--7--7-7-7----|
A|--5--5-5-5--5--5-5-5--7--7-7-7--7--7-7-7----|
E|----------------------5--5-5-5--5--5-5-5----|
  PM  |-----|   |-----|   |-----|   |-----|
               and when it's heating up
e|-------------------------------------------|
B|-------------------------------------------|
G|-------------------------------------------|
D|--9--9-9-9--9--9-9-9--5--5-5-5--5--5-5-5---|
A|--9--9-9-9--9--9-9-9--5--5-5-5--5--5-5-5---|
E|--7--7-7-7--7--7-7-7--3--3-3-3--3--3-3-3---|
  PM  |-----|   |-----|   |-----|   |-----|
 I think i'm stuck forever
e|--------------------------------------------|
B|--------------------------------------------|
G|--7--7-7-7--7--7-7-7------------------------|
D|--7--7-7-7--7--7-7-7--7--7-7-7--7--7-7-7----|
A|--5--5-5-5--5--5-5-5--7--7-7-7--7--7-7-7----|
E|----------------------5--5-5-5--5--5-5-5----|
  PM  |-----|   |-----|   |-----|   |-----|
[ Tab from: http://www.guitartabs.cc/tabs/m/millencolin/replay_tab.html ]
         i try to lose some weight
e|-------------------------------------------|
B|-------------------------------------------|
G|-------------------------------------------|
D|--9--9-9-9--9--9-9-9--5--5-5-5--5--5-5-5---|
A|--9--9-9-9--9--9-9-9--5--5-5-5--5--5-5-5---|
E|--7--7-7-7--7--7-7-7--3--3-3-3--3--3-3-3---|
  PM  |-----|   |-----|   |-----|   |-----|
         i try to get in shape   But
e|--------------------------------------------|
B|--------------------------------------------|
G|--7--7-7-7--7--7-7-7------------------------|
D|--7--7-7-7--7--7-7-7--7--7-7-7--7--7-7-7----|
A|--5--5-5-5--5--5-5-5--7--7-7-7--7--7-7-7----|
E|----------------------5--5-5-5--5--5-5-5----|
  PM  |-----|   |-----|   |-----|   |-----|
in the end i always      end up 
e|-------------------------------------------|
B|-------------------------------------------|
G|-------------------------------------------|
D|--9--9-9-9--9--9-9-9--5--5-5-5--5--5-5-5---|
A|--9--9-9-9--9--9-9-9--5--5-5-5--5--5-5-5---|
E|--7--7-7-7--7--7-7-7--3--3-3-3--3--3-3-3---|
  PM  |-----|   |-----|   |-----|   |-----|
              lost inside myself
e|--------------------------------------------|
B|--------------------------------------------|
G|--7--7-7-7--7--7-7-7------------------------|
D|--7--7-7-7--7--7-7-7--7--7-7-7--7--7-7-7----|
A|--5--5-5-5--5--5-5-5--7--7-7-7--7--7-7-7----|
E|----------------------5--5-5-5--5--5-5-5----|
  PM  |-----|   |-----|   |-----|   |-----|
Refrain:
 guitar 1
    Up and down        gets nothing done
e|-----------------------------------------|
B|-----------------------------------------|
G|---------------------9-------------------|
D|----5----7-----------9----9--------------|
A|----5----7-----------7----9--------------|
E|----3----5----------------7--------------|
                     fill 1: guitar 2
                     e|---------------------|
                     B|---------10----------|
                     G|------9^full--9--7---|
                     D|--------------------7|
                     A|---------------------|
                     E|---------------------|
                       
        i just keep it waiting (play fill 1)
e|-----------------------------------------|
B|-----------------------------------------|
G|-----------------------------------------|
D|----5----7-----------9--9-9-9-9-9-9-9-9--|
A|----5----7-----------9--9-9-9-9-9-9-9-9--|
E|----3----5-----------7--7-7-7-7-7-7-7-7--|
                     PM  |---------------|
Round and round   out with the thumb
e|-----------------------------------------|
B|-----------------------------------------|
G|---------------------9-------------------|
D|----5----7-----------9----9--------------|
A|----5----7-----------7----9--------------|
E|----3----5----------------7--------------|
      no i just keep on waiting
e|-----------------------------------------|
B|-----------------------------------------|
G|-----------------------------------------|
D|----5----7-----------9--9-9-9-9-9-9-9-9--|
A|----5----7-----------9--9-9-9-9-9-9-9-9--|
E|----3----5-----------7--7-7-7-7-7-7-7-7--|
                     PM  |---------------|
Interlude:
guitar 1+2
e|-----------------------------------------------------------|
B|-----------------------------------------------------------|
G|-----------------------------------------------------------|
D|----9--7----------9--7--------9--7-------------------------|
A|----------5--7----------------------5---7--9--7------------|
E|-----------------------------------------------------------|
                  guitar 3
                   B5                      G5
                e|-------------------------------------------|
                B|-------------------------------------------|
                G|-------------------------------------------|
                D|--9--9-9-9--9--9-9-9-----5--5-5-5--5--5-5-5|
                A|--9--9-9-9--9--9-9-9-----5--5-5-5--5--5-5-5|
                E|--7--7-7-7--7--7-7-7-----3--3-3-3--3--3-3-3|
     guitar 1+2
e|-----------------------------------------------------------|
B|-----------------------------------------------------------|
G|-----------------------------------------------------------|
D|----9--7----------9--7--------9--7-------------------------|
A|----------5--7----------------------5---7--9---------------|
E|-----------------------------------------------------------|
                  guitar 3
                   A5                      E5
               e|--------------------------------------------|
               B|--------------------------------------------|
               G|--------------------------9--9-9-9--9--9-9-9|
               D|--7--7-7-7--7--7-7-7------9--9-9-9--9--9-9-9|
               A|--7--7-7-7--7--7-7-7------7--7-7-7--7--7-7-7|
               E|--5--5-5-5--5--5-5-5------------------------|
1)     guitar 1+2
e|-----------------|
B|-----------------|
G|-----------------|
D|-----9--7--------|
A|-----------5--7--|
E|-----------------|repeat x2
Verse 2:
Twelve numbers stare at me
e|-------------------------------------------|
B|-------------------------------------------|
G|-------------------------------------------|
D|--9--9-9-9--9--9-9-9--5--5-5-5--5--5-5-5---|
A|--9--9-9-9--9--9-9-9--5--5-5-5--5--5-5-5---|
E|--7--7-7-7--7--7-7-7--3--3-3-3--3--3-3-3---|
  PM  |-----|   |-----|   |-----|   |-----|
    sometimes it's not that easy
e|--------------------------------------------|
B|--------------------------------------------|
G|--7--7-7-7--7--7-7-7------------------------|
D|--7--7-7-7--7--7-7-7--7--7-7-7--7--7-7-7----|
A|--5--5-5-5--5--5-5-5--7--7-7-7--7--7-7-7----|
E|----------------------5--5-5-5--5--5-5-5----|
  PM  |-----|   |-----|   |-----|   |-----|
            instead of waking  Up
e|-------------------------------------------|
B|-------------------------------------------|
G|-------------------------------------------|
D|--9--9-9-9--9--9-9-9--5--5-5-5--5--5-5-5---|
A|--9--9-9-9--9--9-9-9--5--5-5-5--5--5-5-5---|
E|--7--7-7-7--7--7-7-7--3--3-3-3--3--3-3-3---|
  PM  |-----|   |-----|   |-----|   |-----|
i think i'll sleep forever
e|--------------------------------------------|
B|--------------------------------------------|
G|--7--7-7-7--7--7-7-7------------------------|
D|--7--7-7-7--7--7-7-7--7--7-7-7--7--7-7-7----|
A|--5--5-5-5--5--5-5-5--7--7-7-7--7--7-7-7----|
E|----------------------5--5-5-5--5--5-5-5----|
  PM  |-----|   |-----|   |-----|   |-----|
        what happened to the dayroutines
e|-------------------------------------------|
B|-------------------------------------------|
G|-------------------------------------------|
D|--9--9-9-9--9--9-9-9--5--5-5-5--5--5-5-5---|
A|--9--9-9-9--9--9-9-9--5--5-5-5--5--5-5-5---|
E|--7--7-7-7--7--7-7-7--3--3-3-3--3--3-3-3---|
  PM  |-----|   |-----|   |-----|   |-----|
        that always kept  Me going?
e|--------------------------------------------|
B|--------------------------------------------|
G|--7--7-7-7--7--7-7-7------------------------|
D|--7--7-7-7--7--7-7-7--7--7-7-7--7--7-7-7----|
A|--5--5-5-5--5--5-5-5--7--7-7-7--7--7-7-7----|
E|----------------------5--5-5-5--5--5-5-5----|
  PM  |-----|   |-----|   |-----|   |-----|

where the hell are all the dreams 
e|-------------------------------------------|
B|-------------------------------------------|
G|-------------------------------------------|
D|--9--9-9-9--9--9-9-9--5--5-5-5--5--5-5-5---|
A|--9--9-9-9--9--9-9-9--5--5-5-5--5--5-5-5---|
E|--7--7-7-7--7--7-7-7--3--3-3-3--3--3-3-3---|
  PM  |-----|   |-----|   |-----|   |-----|
          i had about my life?
e|--------------------------------------------|
B|--------------------------------------------|
G|--7--7-7-7--7--7-7-7------------------------|
D|--7--7-7-7--7--7-7-7--7--7-7-7--7--7-7-7----|
A|--5--5-5-5--5--5-5-5--7--7-7-7--7--7-7-7----|
E|----------------------5--5-5-5--5--5-5-5----|
  PM  |-----|   |-----|   |-----|   |-----|
Refrain:
   Up and down        gets nothing done
e|-----------------------------------------|
B|-----------------------------------------|
G|---------------------9-------------------|
D|----5----7-----------9----9--------------|
A|----5----7-----------7----9--------------|
E|----3----5----------------7--------------|
        i just keep it waiting (play fill 1)
e|-----------------------------------------|
B|-----------------------------------------|
G|-----------------------------------------|
D|----5----7-----------9--9-9-9-9-9-9-9-9--|
A|----5----7-----------9--9-9-9-9-9-9-9-9--|
E|----3----5-----------7--7-7-7-7-7-7-7-7--|
                     PM  |---------------|
    Round and round   out with the thumb
e|-----------------------------------------|
B|-----------------------------------------|
G|---------------------9-------------------|
D|----5----7-----------9----9--------------|
A|----5----7-----------7----9--------------|
E|----3----5----------------7--------------|
      no i just keep it waiting 
e|-----------------------------------------|
B|-----------------------------------------|
G|-----------------------------------------|
D|----5----7-----------9--9-9-9-9-9-9-9-9--|
A|----5----7-----------9--9-9-9-9-9-9-9-9--|
E|----3----5-----------7--7-7-7-7-7-7-7-7--|
                     PM  |---------------|

i'll just keep it waiting Now
e|-----------------------------------------|
B|-----------------------------------------|
G|-----------------------------------------|
D|----5----7-----------9--9-9-9-9-9-9-9-9--|
A|----5----7-----------9--9-9-9-9-9-9-9-9--|
E|----3----5-----------7--7-7-7-7-7-7-7-7--|

     but someday i'll get the time
e|------------------------------------------|
B|------------------------------------------|
G|----------------------9--9-9-9-9-9-9-9-9-9|
D|--9--9-9-9--9--9-9-9--9--9-9-9-9-9-9-9-9-9|
A|--9--9-9-9--9--9-9-9--7--7-7-7-7-7-7-7-7-7|
E|--7--7-7-7--7--7-7-7----------------------|

   to get me back on the right track 
e|-------------------------------------------|
B|-------------------------------------------|
G|-------------------------------------------|
D|--5--5-5-5--5--5-5-5--7--7-7-7--7--7-7-7---|
A|--5--5-5-5--5--5-5-5--7--7-7-7--7--7-7-7---|
E|--3--3-3-3--3--3-3-3--5--5-5-5--5--5-5-5---|

and no More slack
e|----------------------|
B|----------------------|
G|----------------------|
D|--9--9-9-9-9-9-9-9-9--|
A|--9--9-9-9-9-9-9-9-9--|
E|--7--7-7-7-7-7-7-7-7--|

got to keep an open mind
e|------------------------------------------|
B|------------------------------------------|
G|----------------------9--9-9-9-9-9-9-9-9-9|
D|--9--9-9-9--9--9-9-9--9--9-9-9-9-9-9-9-9-9|
A|--9--9-9-9--9--9-9-9--7--7-7-7-7-7-7-7-7-7|
E|--7--7-7-7--7--7-7-7----------------------|

i got to get out of this daily grind
e|-------------------------------------------|
B|-------------------------------------------|
G|-------------------------------------------|
D|--5--5-5-5--5--5-5-5--7--7-7-7--7--7-7-7---|
A|--5--5-5-5--5--5-5-5--7--7-7-7--7--7-7-7---|
E|--3--3-3-3--3--3-3-3--5--5-5-5--5--5-5-5---|

And deep inside i know i will
e|-----------------------------------------|
B|-----------------------------------------|
G|-----------------------------------------|
D|----5----7-----------9--9-9-9-9-9-9-9-9--|
A|----5----7-----------9--9-9-9-9-9-9-9-9--|
E|----3----5-----------7--7-7-7-7-7-7-7-7--|
"THats how it is."
Outro:
     guitar 1+2
e|-----------------------------------------------------------|
B|-----------------------------------------------------------|
G|-----------------------------------------------------------|
D|----9--7----------9--7--------9--7-------------------------|
A|----------5--7----------------------5---7--9--7------------|
E|-----------------------------------------------------------|
                  guitar 3
                   B5                      G5
                e|-------------------------------------------|
                B|-------------------------------------------|
                G|-------------------------------------------|
                D|--9--9-9-9--9--9-9-9-----5--5-5-5--5--5-5-5|
                A|--9--9-9-9--9--9-9-9-----5--5-5-5--5--5-5-5|
                E|--7--7-7-7--7--7-7-7-----3--3-3-3--3--3-3-3|
     guitar 1+2
e|-----------------------------------------------------------|
B|-----------------------------------------------------------|
G|-----------------------------------------------------------|
D|----9--7----------9--7--------9--7-------------------------|
A|----------5--7----------------------5---7--9---------------|
E|-----------------------------------------------------------|
                  guitar 3
                   A5                      E5
               e|--------------------------------------------|
               B|--------------------------------------------|
               G|--------------------------9--9-9-9--9--9-9-9|
               D|--7--7-7-7--7--7-7-7------9--9-9-9--9--9-9-9|
               A|--7--7-7-7--7--7-7-7------7--7-7-7--7--7-7-7|
               E|--5--5-5-5--5--5-5-5------------------------|
1)     guitar 1+2
e|-----------------|
B|-----------------|
G|-----------------|
D|-----9--7--------|
A|-----------5--7--|
E|-----------------|repeat x2

2)   Ending:
     guitars 1+2
e|------------------|
B|------------------|
G|------------------|
D|-----9--7--------9|
A|-----------5--7--9|
E|-----------------7|
| /  slide up
| \  slide down
| h  hammer-on
| p  pull-off
| ~  vibrato
| +  harmonic
| x  Mute note
Comments