Millencolin - Ray Chords & Tabs

 

Ray Chords & Tabs

Millencolin Chords & Tabs

Version: 2 Type: Tab 0 ratings
1 star 2 stars 3 stars 4 stars 5 stars
comments

Ray Tab

   
millencolin
rAy
kingwood
----------------------------------------------------------------------------
tabber: Wobbler
standart tuning
----------------------------------------------------------------------------
great song from the great new album...
there are millencolin-like two guitars and i only tabbed second guitar when
it plays different things than guitar one...

intro (both guitars the same) 
e|---------------------------------------------------------|
B|---------------------------------------------------------|
G|----------------------------8-88-9-9-99-9----------------|
D|-9-99-9-9-99-99-99-9-9-99-9-8-88-9-9-99-9-9-99-9-9-9-XXX-|
A|-9-99-9-9-99-99-99-9-9-99-9-6-66-7-7-77-7-9-99-9-9-9-XXX-|
E|-7-77-7-7-77-77-77-7-7-77-7---------------7-77-7-7-7-XXX-|

e|------------------------------------------------------|
B|------------------------------------------------------|
G|----------------------------8-88-9-9-99-9-------------|
D|-9-99-9-9-99-99-99-9-9-99-9-8-88-9-9-99-9-9-99-9-9-99-|
A|-9-99-9-9-99-99-99-9-9-99-9-6-66-7-7-77-7-9-99-9-9-99-|
E|-7-77-7-7-77-77-77-7-7-77-7---------------7-77-7-7-77-|

pre-chorus guitar one
e|---------------------------------------------------------|
B|---------------------------------------------------------|
G|---------------------------------------------------------|
D|-66-666-22-222-9-99-9-9-99-9-66-666-44-444-22-222-22-222-|
A|-66-666-22-222-9-99-9-9-99-9-66-666-44-444-22-222-22-222-|
E|-44-444-00-000-7-77-7-7-77-7-44-444-22-222-00-000-00-000-|

pre-chorus guitar two
e|-----------------------------------------------------------|
B|-----------------------------------------------------------|
G|-------------------------------------------99-999-9-999999-|
D|----------plays the same-------------------xx-xxx-x-xxxxxx-|
A|-------------------------------------------77-777-7-777777-|
E|-----------------------------------------------------------|

chorus guitar one 
e|------------------------------------------------------------|
B|------------------------------------------------------------|
G|------------------------------------------------------------|
D|-9-99999999999999-4-44444444444444-66-666-44-444-2-22-22-22-| x2
A|-9-99999999999999-4-44444444444444-66-666-44-444-2-22-22-22-|
E|-7-77777777777777-2-22222222222222-44-444-22-222-0-00-00-00-|

chorus guitar two
e|------------------------------------------------------------|
B|------------------------------------------------------------|
G|-------------------------------------------------9-99-99-99-|
D|------------plays the same-----------------------x-xx-xx-xx-| x2
A|-------------------------------------------------7-77-77-77-|
E|------------------------------------------------------------|

verse (both guitars the same)
e|---------------------------------------------------------|
B|---------------------------------------------------------|
G|-----------------------------8-88-9-9-99-9---------------|
D|-9-99-9-9-99-4-9-99-9-9-99-9-8-88-9-9-99-9-9-99-9-9-99-9-|
A|-9-99-9-9-99-4-9-99-9-9-99-9-6-66-7-7-77-7-9-99-9-9-99-9-|
E|-7-77-7-7-77-2-7-77-7-7-77-7---------------7-77-7-7-77-7-|

e|------------------------------------------------------|
B|------------------------------------------------------|
G|----------------------------8-88-9-9-99-9-------------|
D|-9-99-9-9-99-99-99-9-9-99-9-8-88-9-9-99-9-9-99-9-9-99-|
A|-9-99-9-9-99-99-99-9-9-99-9-6-66-7-7-77-7-9-99-9-9-99-|
E|-7-77-7-7-77-77-77-7-7-77-7---------------7-77-7-7-77-|

pre-chorus
chorus
[ Tab from: http://www.guitartabs.cc/tabs/m/millencolin/ray_tab_ver_2.html ]
interlude guitar one
e|---------------------------------------------------------|
B|---------------------------------------------------------|
G|-9999999999999999-11---11/13-9----9/11---11/13-9----9/11-|
D|-xxxxxxxxxxxxxxxx--x----x--x-x----x--x----x--x-x----x--x-|
A|-7777777777777777--9----9/11-7----7/-9----9/11-7----7/-9-|
E|---------------------------------------------------------|

               
e|------|               e|------------------------------|
B|------|               B|------------------------------|
G|-9/11-|               G|-9/11111111111111111111111111-|
D|-x--x-| x7            D|-x--x-x-x-x-x-x-x-x-x-x-x-x-x-|
A|-7/-9-|               A|-7/-9-9-9-9-9-9-9-9-9-9-9-9-9-|
E|------|               E|------------------------------|

interlude guitar two
e|---------------------------------------------------------|
B|---------------------------------------------------------|
G|---------------------------------------------------------|
D|------------plays nothing--------------------------------|
A|---------------------------------------------------------|
E|---------------------------------------------------------|

e|-----------------|    e|------------------------------|
B|-----------------|    B|------------------------------|
G|-1111-99-888-6-4-|    G|---11111111111111111111111111-|
D|--x-x-xx-xxx-x-x-| x7 D|----x-x-x-x-x-x-x-x-x-x-x-x-x-|
A|--9-9-77-666-4-2-|    A|----9-9-9-9-9-9-9-9-9-9-9-9-9-|
E|-----------------|    E|------------------------------|

chorus

outro guitar one
e|------------------------------------------------------------|
B|------------------------------------------------------------|
G|------------------------------------------------------------|
D|-9-99999999999999-4-44444444444444-66-666-44-444-2-22-22-22-| 
A|-9-99999999999999-4-44444444444444-66-666-44-444-2-22-22-22-|
E|-7-77777777777777-2-22222222222222-44-444-22-222-0-00-00-00-|
                                                 /
outro guitar two                       _________/           
e|------------------|                  |e|---------------------------------|
B|------------------|                   B|---------------------------------|
G|-1111-999-888-6-4-|                   G|-11111111111111111313131313131313|
D|--x-x-xxx-xxx-x-x-| x3                D|--x-x-x-x-x-x-x-x-x-x-x-x-x-x-x-x|
A|--9-9-777-666-4-2-|                   A|--9-9-9-9-9-9-9-9-111111111111111|
E|------------------|                   E|---------------------------------|

outro guitar one
e|-------------------------------------------------|
B|-------------------------------------------------|
G|-------------------------------------------------|
D|-9-99999999999999-4-44444444444444-66-666-44-444-| 
A|-9-99999999999999-4-44444444444444-66-666-44-444-|
E|-7-77777777777777-2-22222222222222-44-444-22-222-|
                                                 /
outro guitar two                       _________/  ending guitar two        
e|------------------|                  |e|---------------------------------|
B|------------------|                   B|---------------------------------|
G|-1111-999-888-6-4-|                   G|-11111111111111111313131313131313|
D|--x-x-xxx-xxx-x-x-| x3                D|--x-x-x-x-x-x-x-x-x-x-x-x-x-x-x-x|
A|--9-9-777-666-4-2-|                   A|--9-9-9-9-9-9-9-9-111111111111111|
E|------------------|                   E|---------------------------------|
                     
e|--------------------------------------|
B|--------------------------------------|
G|-16161616161616161616161616161616-16--|
D|--x-x-x-x-x-x-x-x-x-x-x-x-x-x-x-x--x--|
A|-14141414141414141414141414141414-14--|
E|--------------------------------------|

ending guitar one
e|--------------------------------------|
B|--------------------------------------|
G|--------------------------------------|
D|-----------------------------------9--|
A|-----------------------------------9--|
E|-----------------------------------7--|

thats it...i hope you understand my tab-structure 
if not,listen to the song and you'll get it...
el_diablo7th@freenet.de 
cYa
Comments