Millencolin - Ray Chords & Tabs

 

Ray Chords & Tabs

Millencolin Chords & Tabs

Version: 2 Type: Chords 0 ratings
1 star 2 stars 3 stars 4 stars 5 stars
comments

Ray Chords

Band:Millencolin
Song:Ray
Tabbed by´:Eldino

This is my first tab!

Guitar & drum intro

Verse:
G:--------------------------------------------------|
D:--------------------------------------------------|     1x
A:-2-22-2-2-22-2-22-2-2-22-6-66-7-7-77-2-22-2-2-22--|
E:--------------------------------------------------|

Pre-Chorus:
G:----------------------------------------------------------------|
D:----------------------------------------------------------------|
A:--------------2-22-2-2-22--------------7-77---------------------|   1x
E:-4-4444-0-000-------------4-4444-2-222------7/1212121212121212--|

Chorus:
G:--------------------------------------------------|
D:--------------------------------------------------|
A:2-22222222----------------------------------------|     2x
E:------------2-22222222-4-4444-2-2222-00-00-00-00--|

Verse2:
G:-----------------------------------------------------------------|
D:-----------------------------------------------------------------|
A:-4-2-22-2-2-22-6-66-7-7-77-2-22-2-2-22--2-22-2-2-22-6-66-7-7-77--|     2x
E:-----------------------------------------------------------------|
( Guitar plays A:-2-22-2-2-22--------------------------------------| first time  before bass plays this.)
[ Tab from: http://www.guitartabs.cc/tabs/m/millencolin/ray_crd_ver_2.html ]
Pre-Chorus2:
G:-----------------------------------------------------------------|
D:-----------------------------------------------------------------|
A:--------------2-22-2-2-22---------------7-77---------------------|     1x
E:-4-4444-0-000-------------4-4444-2-222-------7/1212121212121212--|

Chorus2:
G:-------------------------------------------------|
D:-------------------------------------------------|
A:2-22222222---------------------------------------|     2x
E:-----------2-22222222-4-4444-2-2222-00-00-00-00--|

G:-----------------------------------------|
D:-----------------------------------------|
A:-----------------------------------------|     1x
E:-1/-12-12-12-12-12-12-12-12-12-12-12-12--|


Bridge:
G:--------------------------------------------------------------|
D:--------------------------------------------------------------|
A:-9~-------7~----------     5x     A:-9--------9-9999999-------|     1x
E:--------------------------------------------------------------|

Chorus/Outro:
G:-------------------------------------------------|
D:-------------------------------------------------|
A:2-22222222---------------------------------------|     4x
E:-----------2-22222222-4-4444-2-2222-00-00-00-00--|

G:---------------------------------------|
D:---------------------------------------|
A:---------------------------------------|     1x
E:-1/-12-12-12-12-12-12-12-12-12-12---7--|
Comments