Millencolin - Random I Am Chords & Tabs

 

Random I Am Chords & Tabs

Millencolin Chords & Tabs

Version: 1 Type: Bass Tab 0 ratings
1 star 2 stars 3 stars 4 stars 5 stars
comments

Random I Am Bass Tab

RANDOM I AM
MILLENCOLIN
FOR MONKEYS

CORRECT VERSION - DAMN!!!! (i think so...)

this is good i think, if it's not, you can kill me (like if you could, he he he).
at the end of my tab is the another version ($%&%#") of this song. compare...

*=repeat the not several times

with this you enter to the song
--------------
--------------
--------2-3-5-
-0----3-------


verse
----------------------------------
----------------------------------
-5-/9109\-5-/9109\----7-5-7---2-3-5-
------------------7-------3-------
[ Tab from: http://www.guitartabs.cc/tabs/m/millencolin/random_i_am_btab.html ]
chorus
--------
--*-----
-\5-*-*-
----5-3-

chorus with ending (the second time)
--------  -------
--*-----  -*-----
-\5-*-*-  -2-*-*-
----5-3-  ---5-3-

bass bridge
 * * *  * *  *
-7-9-11-7-11-7-
-0-0-0--0-9--5-
---------------
---------------

this is what you play after the bridge
-------
-*-*---
-5-2-*-
-----3-

chorus with ending again

outro
------------------------
-*-------*---*-----------
-5-7-*-5-7-9-10-10-9-7-5-
-----5-------------------

comments??=vodka@minorthreat.com
Visit the page of my bands
http://www.pornostico.com
http://suicideking.hxc.com
Rene

Comments