Millencolin - Puzzle Chords & Tabs

 

Puzzle Chords & Tabs

Millencolin Chords & Tabs

Version: 2 Type: Tab 0 ratings
1 star 2 stars 3 stars 4 stars 5 stars
comments

Puzzle Tab

#----------------------------------PLEASE NOTE---------------------------------#
#This file is the author's own work and represents their interpretation of the #
#song. You may only use this file for private study, scholarship, or research. #
#------------------------------------------------------------------------------#

From:   Stash Fortier [stash@nt.net]
Sent:   Wednesday, January 03, 1996 12:59 AM

-----------------------------------------------------------------------
                        MILLENCOLIN:PUZZLE
-----------------------------------------------------------------------

By:Stash Fortier(stash@nt.net)

THE PICKING PATTERN IS ILLUSTRATED HERE

INTRO
e|--------------------------------------------------------------------|
B|--------------------------------------------------------------------|
G|------9--7-7-7-7--4--6-6--4--6-6-6-6--4-4----x2---------------------|
D|-7-7--9--7-7-7-7--4--6-6--4--4-4-4-4--2-2---------------------------|
A|-7-7--7--5-5-5-5--2--4-4--2-----------------------------------------|
E|-5-5----------------------------------------------------------------|

VERSE PART 1
e|--------------------------------------------------------------------|
B|--------------------------------------------------------------------|
G|-6-6-6-6-6--7-7-7-7-7--9-9-9-9-9-9-9-9-9-9--------------------------|
D|-6-6-6-6-6--7-7-7-7-7--9-9-9-9-9-9-9-9-9-9--------------------------|
A|-4-4-4-4-4--5-5-5-5-5--7-7-7-7-7-7-7-7-7-7--------------------------|
E|--------------------------------------------------------------------|

VERSE PART 2
e|-5-5-5-5---5-5-5-5--------------------------------------------------|
B|--------------------------------------------------------------------|
G|--------------------------------------------------------------------|
D|--------------------------------------------------------------------|
A|--------------------------------------------------------------------|
E|--------------------------------------------------------------------|

REPEAT VERSE PART 1

CHORUS PART 1
e|--------------------------------------------------------------------|
B|--------------------------------------------------------------------|
G|------------7-7-7-7-7--9-9-9-9-9--4-4-4------------------7-7-7-7-7--|
D|-4-4-4-4-4--7-7-7-7-7--9-9-9-9-9--4-4-4-4-4---4-4-4-4-4--7-7-7-7-7--|
A|-4-4-4-4-4--5-5-5-5-5--7-7-7-7-7--2-2-2-4-4---4-4-4-4-4--5-5-5-5-5--|
E|-2-2-2-2-2------------------------------2-2---2-2-2-2-2-------------|

e|--------------------------------------------------------------------|
B|--------------------------------------------------------------------|
G|-9-9-9-9-9--4-4-4--6-6----------------------------------------------|
D|-9-9-9-9-9--4-4-4--6-6----------------------------------------------|
A|-7-7-7-7-7--2-2-2--4-4----------------------------------------------|
E|--------------------------------------------------------------------|
[ Tab from: http://www.guitartabs.cc/tabs/m/millencolin/puzzle_tab_ver_2.html ]
CHORUS PART 2
e|--------------------------------------------------------------------|
B|--------------------------------------------------------------------|
G|-6--6-6-6-6--6--6-6-6-6--------------7-7-7-7-6-6-6--6-6-6-6-6-------|
D|-6--6-6-6-6--6--6-6-6-6--4--4-4-4-4--7-7-7-7-6-6-6--6-6-6-6-6-------|
A|-4--4-4-4-4--3--3-3-3-3--4--4-4-4-4--5-5-5-5-4-4-4--4-4-4-4-4-------|
E|-------------------------2--2-2-2-2---------------------------------|
      PM.....     PM.....     PM.....
e|--------------------------------------------------------------------|
B|--------------------------------------------------------------------|
G|-7-7-7-7-7--9-9-9-9-9-9-9-9-9-9-------------------------------------|
D|-7-7-7-7-7--9-9-9-9-9-9-9-9-9-9--X2---------------------------------|
A|-5-5-5-5-5--7-7-7-7-7-7-7-7-7-7-------------------------------------|
E|--------------------------------------------------------------------|

REPEAT CHORUS TWICE WITH EXCEPTION

EXCEPTION-ON SECOND CHORUS REPEAT
e|--------------------------------------------------------------------|
B|--------------------------------------------------------------------|
G|-REPLACE-9-9-9-9-9--4-4-4--6-6--WITH-9-9-9-9-9-9-9-9-9-9-9-9-9-9-9--|
D|---------9-9-9-9-9--4-4-4--6-6-------9-9-9-9-9-9-9-9-9-9-9-9-9-9-9--|
A|---------7-7-7-7-7--2-2-2--4-4-------7-7-7-7-7-7-7-7-7-7-7-7-7-7-7--|
E|--------------------------------------------------------------------|

REPEAT INTRO

BRIDGE
e|--------------------------------------------------------------------|
B|--------------------------------------------------------------------|
G|-9-9--9--9-9--6-6--6--6-6--7-7-7-7--6-6-6-6--4-4-4-4----------9-9-9-|
D|-9-9--9--9-9--4-4--4--4-4--7-7-7-7--6-6-6-6--4-4-4-4--X2-THEN-9-9-9-|
A|-7-7--7--7-7---------------5-5-5-5--4-4-4-4--2-2-2-2----------7-7-7-|
E|--------------------------------------------------------------------|

e|--------------------------------------------------------------------|
B|--------------------------------------------------------------------|
G|--------------------------------------------------------------------|
D|-7--7-7-7-7-7-7-7-7-7-7--7-7--7-7-7-7-7-7-7-7-7-7--7-6--------------|
A|-7--7-7-7-7-7-7-7-7-7-7--7-7--7-7-7-7-7-7-7-7-7-7--7-6--------------|
E|-5--5-5-5-5-5-5-5-5-5-5--5-5--5-5-5-5-5-5-5-5-5-5--5-4--------------|
      PM.................       PM.................    

REPEAT CHORUS TWICE WITH EXCEPTION
REPEAT INTRO 4 TIMES

END
e|--------------------------------------------------------------------|
B|--------------------------------------------------------------------|
G|--------------------------------------------------------------------|
D|-4------------------------------------------------------------------|
A|-4------------------------------------------------------------------|
E|-2------------------------------------------------------------------|

LYRICS
INTRO
VERSE
Here we are again with another bunch of soft songs
Maybe you are wondering why it took us so long
With a schedule tight, studio time in sight
We have mostly been out touring
Inspiration has been hard this time and honestly
I've had some problems with all these rhymes

CHORUS PART 1
We're under stress again, but it has always been that way
And once we get it right, then I know it's there to stay
We're under stress again, but we're used to that now
It's always tough at first but somehow we always end up fine


CHORUS PART 2
Third album, less of ska and not so many fast ones
More of poppy, pushy songs, those that we do best now
Nine to five at Unisound in January 97
We had the greatest time, with Dan as engineer
Now the outcome is what you hear

BRIDGE
If you're lonely or if you're happy
Feeling swell or feeling blue, we might have a tune for you
It's about half an hour, maybe less or maybe more
Whatever it might be it's still softcore

stash@nt.net for comments/questions
=======================================================================
Comments