Millencolin - Punk Rock Rebel Chords & Tabs

 

Punk Rock Rebel Chords & Tabs

Millencolin Chords & Tabs

Version: 1 Type: Tab 0 ratings
1 star 2 stars 3 stars 4 stars 5 stars
comments

Punk Rock Rebel Tab

   
Song: Punk Rock Rebel
Artist: Millencolin
Album: Home From Home
Tabbed by: Christian / silent_warrior_@hotmail.com

Tuning: Standard (E A D G B E)

/ - Slide up
p - Pull off
x - Mute string
\ - Slide down
^ - Bend string
() - Play while bending string



Intro - Guitar 1
|---------------------------------------|
|----9------------10-10-----------------|
|-/9---9p7-5-7-5--------12-9-9-12--12p9-|x4
|---------------------------------------|
|---------------------------------------|
|---------------------------------------|


Intro - Guitar 2
|----------|
|-9-9--8-8-|
|-9-9--9-9-| x8
|----------|
|----------|
|----------|


Verse
|---------------------------------------|
|-9-----9-8------------8-----8-9--------|
|-9-----9-9------------9-----9-9--------| x4
|---x-x-----x-x--x-x-x---x-x-----x-x--x-|
|---x-x-----x-x--x-x-x---x-x-----x-x--x-|
|---x-x-----x-x--x-x-x---x-x-----x-x--x-|


Fill
|-------------------|
|-8-8-8-8-8-8-8-8-8-|
|-9-9-9-9-9-9-9-9-9-| x1
|-------------------|
|-------------------|
|-------------------|

Chorus
|------------------|
|-9-9-9-9--8-8-8-8-|
|-9-9-9-9--9-9-9-9-| x3
|------------------|
|------------------|
|------------------|


|-------------------|
|-9-9-9-9-9-9-9-9-9-|
|-9-9-9-9-9-9-9-9-9-| x1
|-------------------|
|-------------------|
|-------------------|

Guitar 1
|---------------------------------------|
|----9------------10-10-----------------|
|-/9---9p7-5-7-5--------12-9-9-12--12p9-| x2
|---------------------------------------|
|---------------------------------------|
|---------------------------------------|


Guitar 2
|----------|
|-9-9--8-8-|
|-9-9--9-9-| x4
|----------|
|----------|
|----------|


Verse
|-------------------------|
|-8\-------9\--8\--9\--9\-|
|-9\-------9\--9\--8\--9\-| x1
|-------------------------|
|-------------------------|
|-------------------------|

[ Tab from: http://www.guitartabs.cc/tabs/m/millencolin/punk_rock_rebel_tab.html ]
|---------------------------------------|
|-9-----9-8------------8-----8-9--------|
|-9-----9-9------------9-----9-9--------| x2
|---x-x-----x-x--x-x-x---x-x-----x-x--x-|
|---x-x-----x-x--x-x-x---x-x-----x-x--x-|
|---x-x-----x-x--x-x-x---x-x-----x-x--x-|


Fill
|-------------------|
|-8-8-8-8-8-8-8-8-8-|
|-9-9-9-9-9-9-9-9-9-| x1
|-------------------|
|-------------------|
|-------------------|

Chorus
|------------------|
|-9-9-9-9--8-8-8-8-|
|-9-9-9-9--9-9-9-9-| x3
|------------------|
|------------------|
|------------------|


|-------------------|
|-8-8-8-8-8-8-8-8-8-|
|-9-9-9-9-9-9-9-9-9-| x1
|-------------------|
|-------------------|
|-------------------|


Bridge (play the 12s clean)
|---------12-|
|-9-----12---|
|--9---------| x1
|---9--------|
|------------|
|------------|


|----------------------|
|-9--9-8-8--9-8-8--9-9-|
|-9--9-9-9--9-9-9--8-9-| x15
|----------------------|
|----------------------|
|----------------------|


Fill
|-------------------|
|-8-8-8-8-8-8-8-8-8-|
|-9-9-9-9-9-9-9-9-9-| x1
|-------------------|
|-------------------|
|-------------------|


Chorus
|------------------|
|-9-9-9-9--8-8-8-8-|
|-9-9-9-9--9-9-9-9-| x3
|------------------|
|------------------|
|------------------|


|-------------------|
|-8-8-8-8-8-8-8-8-8-|
|-9-9-9-9-9-9-9-9-9-| x1
|-------------------|
|-------------------|
|-------------------|


|-----------------|
|-9-9-9-9-8-8-8-8-|
|-9-9-9-9-9-9-9-9-| x3
|-----------------|
|-----------------|
|-----------------|


|-------------------|
|-8-8-8-8-8-8-8-8-8-|
|-9-9-9-9-9-9-9-9-9-| x1
|-------------------|
|-------------------|
|-------------------|


Outro - Guitar 1
|---------------------------------------|
|----9------------10-10-----------------|
|-/9---9p7-5-7-5--------12-9-9-12--12p9-| Play till end
|---------------------------------------|
|---------------------------------------|
|---------------------------------------|


Outro - Guitar 2
|-9^-(9)-(9)-(9)-(9)-|
|--------------------|
|--------------------| x8
|--------------------|
|--------------------|
|--------------------|


|-12^-(12)-(12)-(12)-(12)-|
|-------------------------|
|-------------------------| x3
|-------------------------|
|-------------------------|
|-------------------------|
Comments