Millencolin - Pepper Chords & Tabs

 

Pepper Chords & Tabs

Millencolin Chords & Tabs

Version: 5 Type: Tab 0 ratings
1 star 2 stars 3 stars 4 stars 5 stars
comments

Pepper Tab

This is song is played with two guitars
             but works fine with one!
Intro:
        Rythm guitar:
                                 Verse:- (x2)rythm guitar and lead gutar
 e|------------------------|    e|----------------------------|
 b|------------------------|    b|----------------------------|
 g|------------------------|    g|----------------------------|
 d|-9-9--9-9-9--9-9-9--9-9-|    d|-9-9--9-9-9---9-9-9---9-9-9-|
 a|-9-9--9-9-9--9-9-9--9-9-|    a|-9-9--9-9-9---9-9-9---9-9-9-|
 E|-7-7--7-7-7--7-7-7--7-7-|    E|-7-7--7-7-7---7-7-7---7-7-7-|

Verse:-    play verse 2x
 e|--------------------------------|
 b|--------------------------------|
 g|--------------------------------|
 d|-9-9-9--9-9-9--6-6-6--4-4-4-----|
 a|-7-7-7--7-7-7--4-4-4--2-2-2-----|
 E|--------------------------------|

  Chorus: (Lead guitar)
 e|----------------------------------------------------------|
 b|----------------------------------------------------------|
 g|----------------------------------------------------------|
 d|-------6--------------------------------------------------|
 a|---------9-9-9-9-9-9-6-9-9-7-7-7-7-7-9-6-6-6-6-6-6-6-6----|
 E|-7-7-7----------------------------------------------------|
[ Tab from: http://www.guitartabs.cc/tabs/m/millencolin/pepper_tab_ver_5.html ]
 e|---------------------------------------|
 b|---------------------------------------|
 g|---------------------------------------|
 d|-------6-8-8-8-8-8-8-8-8-8-------------|
 a|-------------------------------9-7-6---|
 E|-7-7-7---------------------7-7-------7-|


 Chorus:- (rythm guitar) 

 e|----------------------------------------------------|
 b|----------------------------------------------------|
 g|------------------------4---------------------------|
 d|-6-------4-------2------4-(x8)-6------4------2------|
 a|-6-(x8)--4-(x8)--2-(x8)-2------6-(x8)-4-(x8)-2-(x8)-|
 E|-4-------2-------0-------------4------2------0------|

 e|----------------------------------------------------|
 b|----------------------------------------------------|
 g|----------------------------------------------------|
 d|-9-9--9-9-9--9-9-9--9-9--then-play-verse-again 2x---|
 a|-9-9--9-9-9--9-9-9--9-9-----------------------------|
 E|-7-7--7-7-7--7-7-7--7-7-----------------------------|


 Chorus 2 same as 1
 Bridge:- (mute the chors that follws x's) (rythm guitar)
 e|-------------------------------------------------------------|
 b|-----(I-dont-know-the-part-with-lead-guitar-for-bridge-------|
 g|-------------------------------------------------------------|
 d|-9~---x-x-6--x-x-4---x-x-9--x-9-9--x-x-8--x-x-8--x-x-9-x-x-9-|
 a|-9~---x-x-6--x-x-4---x-x-9--x-9-9--x-x-6--x-x-6--x-x-7-x-x-7-|
 E|-7~---x-x-4--x-x-2---x-x-7--x-7-7----------------------------|

 Then play chorus again!
  Listen to the song to work out the rythm!
  Please rate my tab!!!

   millencolin905@hotmail.com
Comments