Millencolin - Pepper Chords & Tabs

 

Pepper Chords & Tabs

Millencolin Chords & Tabs

Version: 4 Type: Tab 0 ratings
1 star 2 stars 3 stars 4 stars 5 stars
comments

Pepper Tab

   
-----------------------------------------------------------------
			Millencolin - Pepper
		    Album: Pennybridge Pioneers
		Tabbed by DTMax - dtmax_@hotmail.com
-----------------------------------------------------------------

	INTRO
e|----------------|
B|----------------|
G|----------------|
D|-999-999-999-99-|
A|-999-999-999-99-|
E|-777-777-777-77-|

	VERSE
e|---------------------------------|
B|---------------------------------|
G|-----------------999-999---------|
D|-999-999-999-999-999-999-666-444-|
A|-999-999-999-999-777-777-666-444-|
E|-777-777-777-777---------444-222-|

	CHORUS
e|-------------------------------------|
B|-------------------------------------|
G|-------------------------------------|
D|-------------------------------------|
A|-----11-999999-11-99-77777-9-6666666-|
E|-777---------------------------------|

[ Tab from: http://www.guitartabs.cc/tabs/m/millencolin/pepper_tab_ver_4.html ]
e|-------------------------------------------|
B|-------------------------------------------|
G|-------------------------------------------|
D|-------------------------------------------|
A|-----11-13-13-13-13-13-13-13-13----9-7-6---|
E|-777----------------------------77-------7-|

	BRIDGE 1
e|--------------------------------------|
B|--------------------------------------|
G|--------------------88888888-99999999-|
D|-6666-4444-99999999-88888888-99999999-|
A|-6666-4444-99999999-66666666-77777777-|
E|-4444-2222-77777777-------------------|

	BRIDGE 2
e|---------------------------|
B|---------------------------|
G|-----------------888-999---|
D|-666-444-999-999-888-999---|
A|-666-444-999-999-666-777---|
E|-444-222-777-777-----------|
PM ..  ..  ..  ..  ..  ..

	BRIDGE 3
e|---4---4---2---2---|
B|-----4-------2-----|
G|-------------------|
D|-------------------|
A|-------------------|
E|-------------------|

----------------------------------------------------------
			Breakdown
----------------------------------------------------------

INTRO
VERSE x2
CHORUS
INTRO
VERSE x2
CHORUS
BRIDGE 1 x2
BRIDGE 1 and BRIDGE 3 x2
ALL BRIDGES x2
INTRO
CHORUS x2

Great song and very easy! Have Fun!
Comments