Millencolin - Pepper Chords & Tabs

 

Pepper Chords & Tabs

Millencolin Chords & Tabs

Version: 2 Type: Tab 0 ratings
1 star 2 stars 3 stars 4 stars 5 stars
comments

Pepper Tab

   
Artist: Millencolin 
Title: pepper
Album: Pennybridge Pioneers

 Tabber: Francis     forum_101@hotmail.com

  Hey, this intro is really easy, just listen to the beat before playing it, probably wont sound like it
at first but once you do it fast and with mute it will sound exactly like it. If you have any
comments email me, l8er!

Tunning: standard 
Mode: a bit of distortion 
(C)= cut 
^ up stroke, and all the rest down
[ Tab from: http://www.guitartabs.cc/tabs/m/millencolin/pepper_tab_ver_2.html ]
riff 1
e--------------------------------------)
b--------------------------------------)
g--------------------------------------)
d------7-7------7-7-7 — 7-7-7 – 7-7--- )
a------7-7------7-7-7 — 7-7-7—--7-7----)
E------9-9----- 9-9-9—  9-9-9---9-9----)
	    (C)      (C)    (C)     (C)
								
riff 2
e-----------------------------------------------------------------------------)
b-----------------------------------------------------------------------------)
g-------------------------------------------7-7----- 7-7-7-----------—-- -----)
d------7-7-------7-7-7 —-7-7-7 – 7-7--- ----7-7------7-7-7——-5-5-5—----3-3----)
a------7-7-------7-7-7 -—7-7-7—--7-7--------9-9------9-9-9——-5-5-5-----3-3 ---)
E------9-9-------9-9-9—--9-9-9---9-9-------------------------3-3-3-----1-1----)
	    (C)       (C)     (C)      (C)      (C)       (C)       (C)    (C)
								
repeat another time then
riff 3
e--------------------------------------------------------------)
b--------------------------------------------------------------)
g--------------------------------------------------------------)
d----7-7-7-7-7-------9-9-9-9-9-----5-5-5-5-5—---7-7-7-7-7------)
a----7-7-7-7-7-------9-9-9-9-9-----5-5-5-5-5—---7-7–7-7-7------)
E----5-5-5-5-5-------7-7-7-7-7-----3-3-3-3-3----5-5-5-5-5------)                                  
           ^         ^   ^   ^           ^      ^   ^   ^
repeat 3
Comments