Millencolin - Pepper Chords & Tabs

 

Pepper Chords & Tabs

Millencolin Chords & Tabs

Version: 2 Type: Bass Tab 0 ratings
1 star 2 stars 3 stars 4 stars 5 stars
comments

Pepper Bass Tab

   
FTH80:G D A E ; Generated by Fast Tab, do not erase
====================
>From            : Matt.Fritz
Artist          : MillenColin
Bass Performance: Pepper
Album           : Pennybridge Pioneers
Strings: E ,A ,D ,G 


Verse                                       
G -----------------------------------
D -----------------------------------
A --5--5--5--5--7--7-----------------
E --------------------5--5--5--5-----
[ Tab from: http://www.guitartabs.cc/tabs/m/millencolin/pepper_btab_ver_2.html ]
Chours                          
G ------------------------------------------------------
D ------------------------------------------------------
A -----5--5--5--5--------------7--7--7--7---------------
E -----------------5--5--5--5--------------2--2--2--2---

Bridge (At the end of the brigde play A-7 about 8 times till chours)
G ---------------------------------------------------------
D ---------------------------------------------------------
A -----------------------2--2--2--2--5--5--5--5--7--7--7--7
E -----3--3--3--2--2--2------------------------------------                                                          

Order
Verse x2
chours x2
Verse x2
Chours x2
Bridge x6
Comments