Millencolin - Pennybridge Pioneers Chords & Tabs

 

Pennybridge Pioneers Chords & Tabs

Millencolin Chords & Tabs

Version: 1 Type: Bass Tab 0 ratings
1 star 2 stars 3 stars 4 stars 5 stars
comments

Pennybridge Pioneers Bass Tab

   
=========================================
MILLENCOLIN - PENNYBRIDGE PIONEERS (2000)
=========================================

NOTE: FOR ALL SONGS ON THIS ALBUM TAB IT IS X1 IF IT DOES NOT SAY!

1.NO CIGAR - THIS SONG IS FAIRLY OBVIOUS WHERE IT CHANGES JUST
             LISTEN TO THE DRUMS CHANGE THAT IS NORMALLY WHERE
             EACH PART OF THE SONG CHANGE.

THERE IS NO BASS DURING THE DRUM AND GUITAR INTRO

VERSE

G-------------------------------------|
D-------------------------------------|
A----------77777777-------------------|   (x6)
E-99999999----------55555555-22222222-|


PRE-CHORUS

G----------------------------------------------|
D----------------------------------------------|
A----------------------------------------------|
E-55555555-55555555-5555555--5555555--55555555-|


CHORUS

G-----------------------------------------------------|
D-----------------------------------------------------|
A-77777777-99999999-1212121212121212-1212121212121212-|    (x2)
E-----------------------------------------------------|
                           (12'S NOT 1 AND 2)

BRIDGE

G-------------------------------------------------------|
D-------------------------------------------------------|
A-------------------7777777--7777777--------------------|
E-9999999--9999999--------------------9999999--9999999--|


G-------------------------------------------------------|
D-------------------------------------------------------|
A-9999999--99999999-7777777-----------------------------|
E----------------------------55555555555555555555555555-|
                                  JUST KEEP PLAYIN THIS NOTE TILL CHORUS

ENDING

G-------------------|
D-------------------|
A-7777777-----------|
E----------5555555--|

2.FOX - QUITE A DIFFICULT SONG TO FOLLOW WHERE YOU ARE BECAUSE THE RYTHMN IS
        ALWAYS THE SAME BUT THE NOTES CHANGE SLIGHTLY. I HOPE I HELPED.

INTRO

G-------------------------------------------------|
D-------------------------------------------------|
A-5-555-------5-555-------------------------------|
E-------3-333-------3-333-7-777-5-555-3-333-3-333-|


VERSE

G---------------------------------|
D---------------------------------|
A-5-5-5-5-5-3-2-0-5-5-5-5-5-3-2-0-|
E---------------------------------|


CHORUS

G-------------------------------------------------|
D-------------------------------------------------|
A-2-222-2-222-0-000-0-000-5-555-5-555-------------|
E-------------------------------------3-333-3-333-|


BRIDGE

G-----------------------------------0-LETRING-|
D---------------------------------------------|
A-2-222-2-222-0-000-0-000-5-LETRING-----------|
E---------------------------------------------|


CHORUS INTO ENDING GOES SOMETHING LIKE THIS I THINK

G------------------------------------|
D------------------------------------|
A--------------------------5-LETRING-|
E-7-777-5-555-3-333-3-333------------|


3.MATERIAL BOY


INTRO

G-----------------------------------------------------------------|
D-----------------------------------------------------------------|
A-5-----5-5-5-5-----5-5-5-5-----5-5-5-5---------------5-5-5-5-5-5-|
E---3-3---------3-3---------3-3---------3-3-3-5-5-5-5-------------|

VERSE

G-----------------------------------------------------------------------------|
D-----------------------------------------------------------------------------|
A-5-5-----------------------------5-5----------------------------*5-5-5-5-5-5-|
E-----3-3-5-5-5-5-3-3-3-3-5-5-5-5-----3-3-5-5-5-5-3-3-3-3-5-5-5-5-------------|
                                                            *IN THE 2ND VERSE
                                                          DON'T PLAY THIS BIT

PRE-CHORUS

G-------------------------------------------------------|
D-------------------------------------------------------|
A-5-5------------------5-5------------------5-5-5-5-5-5-|
E-----10\3-3-3-5-5-5-5-----10\3-3-3-5-5-5-5-------------|

CHORUS

G-----------------------------------------------------------------|
D-----------------------------------------------------------------|
A-2-2-2-2-2-2-2-2-----------------5-5-5-5-5-5-5-5-----------------|
E-----------------3-3-3-3-3-3-3-3-----------------5-5-5-5-5-5-5-5-|

POST CHORUS

G---------------------------|
D---------------------------|
A-5-5-----5-5-5-5-5-5-----5-|
E-----3-3-------------3-3---|


POST SOLO

G-----------------------|
D-----------------------|
A-2-2-2---------5-5-5---|
E-------3-3-3-3-------5-|

POST SOLO (2ND PART)

G---------------------------------------------------------------------------|
D---------------------------------------------------------------------------|
A-2-2-2-2-2-2---------5-5-5-2-2-2-2-2-2-------------5-5-5-5-5-5-5-5-5-5-5-5-|
E-------------3-3-3-3-------------------3-3-3-3-3-3-------------------------|

4.DUCKPOND - ONE OF THE MORE DIFFICULT SONGS TO PLAY IN THE ALBUM
             BUT WITH ABIT OF PRACTISE ON IT ITS EASY AS!

INTRO

G--------------------------|
D--------------------------|
A--5-5-7-9-7-5-3-3-1-3-5---|  (X4)
E--------------------------|


VERSE

G-------------------------------------|
D-------------------------------------|
A-55555555----------22222222----------|
E----------33333333----------33333333-|


CHORUS

G------------------------------------|
D-------------------------5-4--7-5-4-|
A--------------------2--4------------|
E-3--7--9--3-2--5-4------------------|


BRIDGE

G---------------------|
D---------------------|
A-7777------7777------|
E------3333------3333-|

INTRO TO FINISH

5.RIGHT ABOUT NOW - A GREAT SHORT SONG WHICH HAS AN AMAZING SOUNDING SOLO
                    (SHAME ITS NOT ON BASS LOL!)


BASS DOESN'T PLAY IN 1ST BIT OF THE INTRO WHILE THE GUITAR IS CLEAN


VERSE BUT PLAYED IN MOST OF THE SONG

G---------------------|
D---------------------|
A------4444------7777-|
E-0000------5555------|

BRIDGE

G--------------------------------------------|
D--------------------------------------------|
A-44444444--------------------------44444444-|
E------------------55555555------------------|

THEN
G-------------------------------|
D-------------------------------|
A-4444-4444-----------7777-7777-|
E-----------5555-5555-----------|

6.PENGUINS & POLARBEARS - THIS SONG WAS REALISED AND IT IS OBVIOUS WHY IF
                          YOU LISTEN TO IT!


INTRO/PRE-VERSE

G-------------------------------------|
A-------------------------------------|
D-22222222----------------------------| (X3)WHEN PLAYED AS PRE-VERSE PLAY TWICE
E----------22222222-3333333333333333--|

G--------------|
A--------------|
D--------------|
E-00-00-00-2-3-|


VERSE

G-------------------------------------|
D-------------------------------------|
A-22222222----------------------------|   (X4)
E----------22222222-33333333-55555555-|


CHORUS

G---------------------------------------------------------------------|
D---------------------------------------------------------------------|
A-5555555555555555------------------2222222222222222------------------|   (X2)
E------------------5555555555555555------------------3333333333333333-|


BRIDGE

G-----------------------------------|
D-----------------------------------|
A-22222222-444444--5555555555555555-| (X6)
E-----------------------------------|

G----------------------------------------------------------------|
D----------------------------------------------------------------|
A-222222222222-555555555555-222222222222-555555-7-(x22)-LETRING--|
E----------------------------------------------------------------|


7.HELLMAN - I THINK THE ORDER IS OKAY ITS JUST ON MY ALBUM HALF THE SONG IS
            MISSING SO ON THIS ONE YOU WILL HAVE TO GO WITH WHAT I HAVE GOT
            AND IF ANY NEEDS IMPROVING LET ME KNOW. CHEERS.


INTRO - LET THE GUITAR PLAY A SMALL INTRO WITH DRUMS 1ST

G--------------------------------|
D--------------------------------|
A-55555555-----------------------|   (X2)
E----------66666666-111111111111-|


VERSE

G--------------------------------|
D--------------------------------|
A-55555555-----------------------|
E----------66666666-111111111111-|


CHORUS

G----------------------------------------------|
D-------------------77777777-------------------|
A-55555555-77777777----------8888--8--10--8--9-|
E----------------------------------------------|


BRIDGE
[ Tab from: http://www.guitartabs.cc/tabs/m/millencolin/pennybridge_pioneers_btab.html ]
G-11-10--------|
D--------------|
A--------------|
E--------------|


ENDING

G---------------------|
D-------------------7-|
A-55555555-77777777---|
E---------------------|

SORRY THIS IS THE ONLY SONG I THINK MIGHT HAVE MAJOR DEFECTS BUT WHEN
YOU PLAY IT WITH A GUITAR PLAYIN ITS PART IT SOUNDS CORRECT OR BETTER THAN
MOST OTHER SONGS WITH THE BASS.

8.DEVIL ME - ANOTHER GREAT SHORT BUT SWEET SONG ON THERE ALBUM, SHOULD GIVE YOU
             NO HASSLE WITH THIS TAB.


INTRO - WAIT A SHORT WHILE INTIL YOU CAN HEAR THE BASS KICK IN.

G-------------------------------------------------|
D-------------------------------------------------|
A-3333------0000-3333-5555-------3333333333333333-|
E------3333----------------5555-------------------|


CHORUS

G--------------------      -------------------|
D--------------------      -------------------|
A-0000-3333-55555555- (X3) -333333333333-0000-|
E--------------------      -------------------|

VERSE

G-----------------------------------------------|
D-----------------------------------------------|
A----------33333333-0000-3333-00000000-33333333-|
E-33333333--------------------------------------|

G-------------------------------------|
D-------------------------------------|
A----------33333333-55555555-00000000-|
E-33333333----------------------------|


BRIDGE - MORE LIKE A LITTLE BASS LICK IN THE MIDDLE, OTHER THEN THAT PLAY
         CHORUS WITH DIFFERENT TIMING AND MORE PUNCH, YOU WILL PICK IT UP.

G------------|
D------------|
A-55-33-22-0-|
E------------|


ENDING - JUST THE CHORUS AND THEN ENDS ON AN OPEN A STRING PLAYED ONCE


9.THE MAYFLY


INTRO AND VERSE

G-----------------------------|
D-----------------------------|
A-777-222-222-000-000-000-000-|   (X6)
E-----------------------------|


CHORUS

G------------------------------------|
D-2222222222222222-------------------|
A------------------22222222-00000000-|   (X4) LAST TIME CHORUS PLAYED THE
E------------------------------------|        OPEN 'A' PLAYED ONCE


BRIDGE

G-----------------------------------|
D-----------------------------------|
A-2222222222222222-0000000000000000-|   (X3)
E-----------------------------------|


THAT'S ABOUT IT JUST FIND THE ORDER YOURSELF... FAIRLY OBVIOUS REALLY


10.HIGHWAY DONKEY - THIS SONG HAS A VERY COOL CHORUS WHICH IS REAL FUN TO
                    PLAY.


INTRO

G----------------------------------|
D----------------------------------|
A-0002-2222222222555---------------|
E-------------------3-333333333333-|


VERSE

G------ ----------------------------------------------------------------|
D------ ---------------0000000000000000---------------------------------|
A-0002- 222222222222222-------------------------------------------------| (X2)
E------ -------------------------------33333333333333333333333333333333-|


CHORUS

G-----------------------------------------------------------------|
D-0-0-0-0-0-0-0-0-------------------------------------------------|
A-----------------0-0-0-0-0-0-0-0-----------------2-2-2-2-0-0-0-0-|
E---------------------------------0-0-0-0-0-0-0-0-----------------|


GUITAR SOLO

G------------------------------------------------------------------|
D-0000000000000000-------------------------------------------------|
A-----------------0000000000000000----------------2222222200000000-|
E---------------------------------0000000000000000-----------------|

YOU ALSO PLAY THIS IN THE LAST CHORUS AS IT HAS A FASTER PICKING ACTION TO IT.


ENDING

G---
D-0-
A---
E---


11.A-TEN

INTRO

G--------------------------------------------    -------------------|
D-0-(x32)-------------------0000000000000000-    -------------------|
A---------11111111-33333333------------------(X3)-11111111-33333333-|
E--------------------------------------------    -------------------|


VERSE
G---------------------------------------------------------------------|
D---------------------------------------------------------------------|
A-----------------------------------5555555555555555-1111111111111111-|   (X2)
E-1111111111111111-0000000000000000-----------------------------------|


CHORUS - ALSO THE PART PLAYED IN THE GUITAR SOLO

G----------------------------------|
D-00000----------------------------|
A--------33333333-1111111111111111-|   (X2)
E------1---------------------------|


BRIDGE

G---------------------------------    ---------------------------------|
D---------------------------------    ---------------------------------|
A---------------0-1111111111111-0-(X3)---------------0-1(X16)-33333333-|
E-3333333333333-------------------    -3333333333333-------------------|

Outro
G-----------------------------------    ----------------------|
D------------------0000000000000000-    ----------------------|
A-11111111-33333333-----------------(X3)-11111111-33333333----|
E-----------------------------------    -------------------1~-|

12.PEPPER - A GREAT SONG WITH AN AWESOME BRIDGE TRUELY GREAT!


INTRO - BASS PLAYS NOTHING

VERSE - FAST PICKING HERE

G---------------------------------------------------------------------|
D---------------------------------------------------------------------|
A------------------7777777777777777------------------7777777777777777-|
E-7777777777777777------------------7777777777777777------------------|


1ST CHORUS - PLAYED ALOT SLOWER THEN THE REST OF THE SONG

G---------------------------------------------------------------------------|
D---------------------------------------------------------------------------|
A-----------------7-7-7-7-7-7-7-7-9-9-9-9-9-9-9-9-7-7-7-7-7-7-7-7-7-7-7-7---|
E-7-7-7-7-7-7-7-7---------------------------------------------------------7-|


NEXT VERSE PLAYED THE SAME AS 1ST


2ND CHORUS

G-------------------------------------------------------------------|
D-------------------------------------------------------------------|
A-----------------7-7-7-7-7-7-7-7-9-9-9-9-9-9-9-9-7-7-7-7-7-7-7-7---|
E-7-7-7-7-7-7-7-7-------------------------------------------------7-|


BRIDGE - BEST BIT!

G--------------------------------------------------|
D--------------------------------------------------|
A-----------22222222--66666666--77777777-----------|   (X6)
E-4444-2222----------------------------------------|


ENDING - SAME AS VERSE ROUGHLY

G---------------------------------------------------------------|
D---------------------------------------------------------------|
A------------------7777777777777777------------------77777777---|
E-7777777777777777------------------7777777777777777----------7-|

13.THE BALLAD - THE ONLY REAL SLOW SONG ON THE ALBUM, HENCE THE NAME THE
                BALLAD. ON BASS YOU MIGHT FIND THIS SONG ABIT BORING TO
                START WITH BUT IT GETS BETTER.

~ - let it ring

NO BASS PLAYS DURING THE VERSE

CHORUS

G------------------------------------------------------|
D------------------------------------------------------|
A---------2~----5~----3~----------2~----5~----3~----3~-|
E---3~----------------------3~-------------------------|


PRE-CHORUS

G---------|
D---------|
A-----5-3-|
E---3-----|


CHORUS

G------------------------------------------------------|
D------------------------------------------------------|
A---------2~----5~----3~----------2~----5~----3~----3~-|
Eó--3~----------------------3~-------------------------|


INTERLUDE - LET EACH NOTE RING LOUD AND AS LONG AS POSSIBLE

G----------------------------------------------------|
D----------------------------------------------------|
A-----------------------------------------3~--5~--5~-|
E-0~-------3~-------0~-------3~-------3~-------------|


CHORUS AFTER INTERLUDE

G---------------------------------------------------------------------|
D---------------------------------------------------------------------|
A------------------2222222222222222-5555555555555555-3333333333333333-|   (X4)
E-3333333333333333----------------------------------------------------|


ENDING - IF YOU ARE PLAYING TO THE SONG IT FADES OUT ON THE 9TH TIME IF YOU
         ARE PLAYING IT AS A BAND THEN DECIDED WHERE TO STOP.

G--------------------------------|
D--------------------------------|
A---------2-2-22--5-5-55--3-3-33-|
E-3-3-33-------------------------|


THAT'S IT. THE WHOLE ALBUM. I WILL BE CONSTENTLY UPDATING IT SO KEEP LOOKING
AT IT FOR CORRECTIONS AND PLEASE RATE APPROPRIATELY... REMEMBER HOW LONG IT
TAKES TO DO AN ALBUM ;)
Comments