Millencolin - Penguins And Polarbears Chords & Tabs

 

Penguins And Polarbears Chords & Tabs

Millencolin Chords & Tabs

Version: 1 Type: Tab 0 ratings
1 star 2 stars 3 stars 4 stars 5 stars
comments

Penguins And Polarbears Tab

#----------------------------------PLEASE NOTE--------------------------------#
#This file is the author's own work and represents their interpretation of the#
#song. You may only use this file for private study, scholarship, or research.#
#-----------------------------------------------------------------------------#
#-- File created with Instab - http://www.pconline.com/~smcarey/instab.html --#
#-----------------------------------------------------------------------------#

Author/Artist: Millencolin
Title: Penguins and polar bears
Album: Pennybridge Pioneers
Transcribed by: Salvatore Spanò
Email: salspan17@virgilio.it

O.k. Now I'll write the first guitar , then the second
The song isn't to difficult but you must be carefull
if you're playing the part of guitar two.

Let's go now 

Guitar 1
intro

------------------------------------------------------------------------------
------------------------------------------------------------------------------
--11-11-11-11-11-11-11---12-12-14-12-12--12-12-12-12--------------------------
---9--9--9--9--9--9--9---12-12-12-12-12--12-14-12-12------5x------------------
------------------------------------------------------------------------------
------------------------------------------------------------------------------
                                                                              

------------------------------------------------------------------------------
------------------------------------------------------------------------------
--11-11-11\14----14-14-14-14-14-14-14-----------------------------------------
---9--9--9\12----12-12-12-12-12-12-12-----------------------------------------
------------------------------------------------------------------------------
------------------------------------------------------------------------------
  verses                                                                      

------------------------------------------------------------------------------
------------------------------------------------------------------------------
------------------------------------------------------------------------------
--------------------------------------4x--------------------------------------
--9-9-9---4-4-4---5-5-5---7-7-7-----------------------------------------------
--7-7-7---2-2-2---3-3-3---5-5-5-----------------------------------------------
  guitar two plays the last chord downstroke; repeat intro 2 times; chorus:   

------------------------------------------------------------------------------
------------------------------------------------------------------------------
--7-7-7-7-7-------------------------------------------------------------------
--7-7-7-7-7-7-7-7-7-7--9-9-9-9-9--5-5-5-5-5-----------------------------------
--5-5-5-5-5-7-7-7-7-7--9-9-9-9-9--5-5-5-5-5-----------------------------------
------------5-5-5-5-5--7-7-7-7-7--3-3-3-3-3-----------------------------------
   Bridge: guitar1 is muted                                                   

------------------------------------------------------------------------------
------------------------------------------------------------------------------
----------------------------------------9--9--9--9--9--9--9--9--9--9--9--9--9-
--4-4-4-4-----6-6-6----7--7-7-7--7-7-7--9--9--9--9--9--9--9--9--9--9--9--9--9-
--2-2-2-2-----4-4-4----5--5-5-5--5-5-5--7--7--7--7--7--7--7--7--7--7--7--7--7-
------------------------------------------------------------------------------
                                       "thinkin'this way is not something we  
[ Tab from: http://www.guitartabs.cc/tabs/m/millencolin/penguins_and_polarbears_tab.html ]
------------------------------------------------------------------------------
------------------------------------------------------------------------------
-9--7-7-7-7-7-7-7-9--9--9--9--9--9--9--9--9--9--9--9--9--9--7--7--7--7--7--7--
-9--7-7-7-7-7-7-7-9--9--9--9--9--9--9--9--9--9--9--9--9--9--7--7--7--7--7--7--
-7--5-5-5-5-5-5-5-7--7--7--7--7--7--7--7--7--7--7--7--7--7--5--5--5--5--5--5--
------------------------------------------------------------------------------
 both longed for  living this way is not something we nwvwr did plan but i    

------------------------------------------------------------------------------
------------------------------------------------------------------------------
-7--7--7--7--7--7--7--7--7-7-7-7-7-7------------------------------------------
-7--7--7--7--7--7--7--7--7-7-7-7-7-7------------------------------------------
-5--5--5--5--5--5--5--5--5-5-5-5-5-5------------------------------------------
------------------------------------------------------------------------------
 don't think that we'll  chaaaaaange.....  and now Guitar 2   intro           

------------------------------------------------------------------------------
------------------------------------------------------------------------------
------------------------------------------------------------------------------
------------------------------------------------------------------------------
--9--9--9----4--4---5---5---5---5---5---5-------------------------------------
--7--7--7----2--2---3---3---3---3---3---3-------------------------------------
                                                                              

------------------------------------------------------------------------------
------------------------------------------------------------------------------
---------------7--------------------------------------------------------------
--9--9--9-9----7--7--7--7--7--7--7--7-----------------------------------------
--7--7--7-9----5--7--7--7--7--7--7--7-----------------------------------------
--7--7--7\7-------5--5--5--5--5--5--5-----------------------------------------
  chorus:                                                                     

--5-5-5--3-3-3-3-3--5-5-5-5--3-3-3-3-3----------------------------------------
--3-3-3--3-3-3-3-3--3-3-3-3--3-3-3-3-3----------------------------------------
------------------------------------------------------------------------------
------------------------------------------------------------------------------
------------------------------------------------------------------------------
------------------------------------------------------------------------------
  bridge: (background riff troughout all the bridge)                          

--5--5--5--5--5--5--5--5--5--5--5--5--5--3--3--3--3--3--3--3--3--3--3--3--3---
--5--5--5--5--5--5--5--5--5--5--5--5--5--3--3--3--3--3--3--3--3--3--3--3--3---
------------------------------------------------------------------------------
------------------------------------------------------------------------------
------------------------------------------------------------------------------
------------------------------------------------------------------------------
 but chage here:                                                              

-7-7-7-7-7-7-7-7-5-5-5-5-5-5-5-5-5-5-5-12-12-12-12-12-12----------------------
-5-5-5-5-5-5-5-5-5-5-5-5-5-5-5-5-5-5-5\10-10-10-10-10-10----------------------
------------------------------------------------------------------------------
------------------------------------------------------------------------------
------------------------------------------------------------------------------
------------------------------------------------------------------------------
 chaaange... cuz we're stuck in roles as other anti-poles...                  

Comments