Millencolin - Penguins And Polarbears Chords & Tabs

 

Penguins And Polarbears Chords & Tabs

Millencolin Chords & Tabs

Version: 3 Type: Bass Tab 0 ratings
1 star 2 stars 3 stars 4 stars 5 stars
comments

Penguins And Polarbears Bass Tab

Band : 	Millencolin
Song: 	Penguins & Polar bears
Album:	Pennybridge Pioneers

If you get the Rhythm right then this songs will be kick-ass.

Intro : 	                X3	       X1
|---------------------------------|--------------|
|---------------------------------|--------------|
|-2-2-2-2-------------------------|--------------|
|---------2-2-2--3-3-3-3-3-3-3-3--|-0--0--0--2-3-|

Verse			        X4
|---------------------------------|
|---------------------------------|
|-2-2-2-2-------------------------|
|---------2-2-2-2-3-3-3-3-5-5-5-5-|

Pre-Verse		       X2	
|--------------------------------|
|--------------------------------|
|-2-2-2-2------------------------|
|---------2-2-2--3-3-3-3-3-3-3-3-|

Verse			        X4
|---------------------------------|
|---------------------------------|
|-2-2-2-2-------------------------|
|---------2-2-2-2-3-3-3-3-5-5-5-5-|

Chorus					                        X2
|-----------------------------------------------------------------|
|-----------------------------------------------------------------|
|-5-5-5-5-5-5-5-5-----------------2-2-2-2-2-2-2-2-----------------|
|-----------------5-5-5-5-5-5-5-5-----------------3-3-3-3-3-3-3-3-|

Pre-Verse		        X2	
|---------------------------------|
|---------------------------------|
|-2-2-2-2-------------------------|
|---------2-2-2--3-3-3-3-3-3-3-3--|
[ Tab from: http://www.guitartabs.cc/tabs/m/millencolin/penguins_and_polarbears_btab_ver_3.html ]
Verse			         X4
|----------------------------------|
|----------------------------------|
|-2-2-2-2--------------------------|
|---------2-2-2-2-3-3-3-3-5-5-5-5--|

Chorus					                         X4
|------------------------------------------------------------------|
|------------------------------------------------------------------|
|-5-5-5-5-5-5-5-5-----------------2-2-2-2-2-2-2-2------------------|
|-----------------5-5-5-5-5-5-5-5-----------------3-3-3-3-3-3-3-3--|

Bridge Pt 1		        X6
|---------------------------------|
|---------------------------------|
|--2-2-2-2-4-4-4--5-5-5-5-5-5-5-5-|
|---------------------------------|

Bridge Pt 2										                                        X1
|-----------------------------------------------------------------|
|-----------------------------------------------------------------|
|-2-2-2-2-2-2-5-5-5-5-5-5-2-2-2-2-2-2-5-5-5-7-7-7-7-7-7-7-7-7-7-7~|
|-----------------------------------------------------------------|

Chorus					                         X4
|------------------------------------------------------------------|
|------------------------------------------------------------------|
|-5-5-5-5-5-5-5-5-----------------2-2-2-2-2-2-2-2------------------|
|-----------------5-5-5-5-5-5-5-5-----------------3-3-3-3-3-3-3-3--|

Chorus				X1
|---------------------------------|
|---------------------------------|
|-5-5-5-5-5-5-5-5-----------------|
|-----------------5-5-5-5-5-5-5-5-|
Outro :         	       X3	      X1
|--------------------------------|--------------|
|--------------------------------|--------------|
|-2-2-2-2------------------------|--------------|
|---------2-2-2--3-3-3-3-3-3-3-3-|-0--0--0--2-3-|
Comments