Millencolin - Olympic Chords & Tabs

 

Olympic Chords & Tabs

Millencolin Chords & Tabs

Version: 2 Type: Tab 0 ratings
1 star 2 stars 3 stars 4 stars 5 stars
comments

Olympic Tab

   
-----------------------------------------------------------------------------
			     Olympic - Millencolin
-----------------------------------------------------------------------------
Tabbed by:NOfxmIke	
Email:NO!

Tuning:Standard

e|---------------------------------------------------------------|
B|---------------------------------------------------------------|
G|---------------------------------------------------------------|
D|-9--9-9-9--9--9-9-9----5--5-5-5--5--5-5-5----7--7-7-7--7--7-7-7|guitar 1
A|---------------------------------------------------------------|
E|---------------------------------------------------------------|
e|---------------------------|
B|---------------------------|
G|---------------------------|guitar 2
D|-----7--7-7--7--7-7--7-7---|guitar 1	
A|---------------------------|
E|---------------------------|
 w/drums
e|---------------------------------------------------------------|
B|---------------------------------------------------------------|
G|-7--7-7-7--7--7-7-7----7--7-7-7--7--7-7-7----6--6-6-6--6--6-6-6|guitar 2
D|-9--9-9-9--9--9-9-9----5--5-5-5--5--5-5-5----7--7-7-7--7--7-7-7|guitar 1
A|---------------------------------------------------------------|
E|---------------------------------------------------------------|

e|---------------------------|
B|---------------------------|
G|-----9--9-9--7--7-7--6-6---|guitar 2
D|-----7--7-7--7--7-7--7-7---|guitar 1	
A|---------------------------|
E|---------------------------|
full band enters
guitar 1
e|----------------------------------------|
B|----------------------------------------|
G|--7---6-7---7---6-7----6-----6---9-7-6--|
D|--------------------------9-------------|
A|----------------------------------------|
E|----------------------------------------|repeat
guitar 2
e|----------------------------------------|
B|----------------------------------------|
G|----------------------------------------|
D|--9--9-9--9\5--5-5/7--7-7--7--7--7-7--7/|
A|--9--9-9--9\5--5-5/7--7-7--7--7--7-7--7/|
E|--7--7-7--7\3--3-3/5--5-5--5--5--5-5--5/|repeat

verse 1
    Could it be i'm a lonely one
e|----------------------------------------|
B|----------------------------------------|
G|----------------------------------------|
D|--9--9-9-9--9--9-9-9--5--5-5-5--5--5-5-5|
A|--9--9-9-9--9--9-9-9--5--5-5-5--5--5-5-5|
E|--7--7-7-7--7--7-7-7--3--3-3-3--3--3-3-3|
  PM|-------------------------------------|
That made everything so upsidedown now
e|----------------------------------------|
B|----------------------------------------|
G|----------------------------------------|
D|--7--7-7-7--7--7-7-7--7--7-7-7--7--7-7-7|
A|--7--7-7-7--7--7-7-7--7--7-7-7--7--7-7-7|
E|--5--5-5-5--5--5-5-5--5--5-5-5--5--5-5-5|
  PM|-------------------------------------|
   Could it be all the lies i told that gave
e|----------------------------------------|
B|----------------------------------------|
G|----------------------------------------|
D|--9--9-9-9--9--9-9-9--5--5-5-5--5--5-5-5|
A|--9--9-9-9--9--9-9-9--5--5-5-5--5--5-5-5|
E|--7--7-7-7--7--7-7-7--3--3-3-3--3--3-3-3|
  PM|-------------------------------------|
rythym fig a
e|--7-------7-------7------7--------|
B|----7-------7-------7------7------|
G|------7-------7-------7------7----|
D|----------------------------------|
A|----------------------------------|
E|----------------------------------|

                                begin rythym fig a
    Nightmares to me after an olympic day
e|----------------------------------------|
B|----------------------------------------|
G|----------------------------------------|
D|--7--7-7-7--7--7-7-7--7--7-7-7--7--7-7-7|
A|--7--7-7-7--7--7-7-7--7--7-7-7--7--7-7-7|
E|--5--5-5-5--5--5-5-5--5--5-5-5--5--5-5-5|
  PM|-------------------------------------|
You said everything was fine
e|----------------------------------------|
B|----------------------------------------|
G|----------------------------------------|
D|--9--9-9-9--9--9-9-9--5--5-5-5--5--5-5-5|
A|--9--9-9-9--9--9-9-9--5--5-5-5--5--5-5-5|
E|--7--7-7-7--7--7-7-7--3--3-3-3--3--3-3-3|
  PM|-------------------------------------|
   But i saw you through         And i knew 
e|----------------------------------------|
B|----------------------------------------|
G|----------------------------------------|
D|--7--7-7-7--7--7-7-7--7--7-7-7--7--7-7-7|
A|--7--7-7-7--7--7-7-7--7--7-7-7--7--7-7-7|
E|--5--5-5-5--5--5-5-5--5--5-5-5--5--5-5-5|
  PM|-------------------------------------|
                   end rythym fig a
that i was just as bad as you

e|-------------------------|
B|-------------------------|
G|-------------------------|
D|--7--7-7-7--7--7-7-7--7--|
A|--7--7-7-7--7--7-7-7--7--|
E|--5--5-5-5--5--5-5-5--5--|

interlude
guitar 1
e|----------------------------------------|
B|----------------------------------------|
G|--7---6-7---7---6-7----6-----6---9-7-6--|
D|--------------------------9-------------|
A|----------------------------------------|
E|----------------------------------------|repeat
guitar 2
e|----------------------------------------|
B|----------------------------------------|
G|----------------------------------------|
D|--9--9-9--9\5--5-5/7--7-7--7--7--7-7--7/|
A|--9--9-9--9\5--5-5/7--7-7--7--7--7-7--7/|
E|--7--7-7--7\3--3-3/5--5-5--5--5--5-5--5/|repeat
[ Tab from: http://www.guitartabs.cc/tabs/m/millencolin/olympic_tab_ver_2.html ]
verse 2
    Never said i would give you up
e|----------------------------------------|
B|----------------------------------------|
G|----------------------------------------|
D|--9--9-9-9--9--9-9-9--5--5-5-5--5--5-5-5|
A|--9--9-9-9--9--9-9-9--5--5-5-5--5--5-5-5|
E|--7--7-7-7--7--7-7-7--3--3-3-3--3--3-3-3|
  PM|-------------------------------------|
   But if i must then tell me why now
e|----------------------------------------|
B|----------------------------------------|
G|----------------------------------------|
D|--7--7-7-7--7--7-7-7--7--7-7-7--7--7-7-7|
A|--7--7-7-7--7--7-7-7--7--7-7-7--7--7-7-7|
E|--5--5-5-5--5--5-5-5--5--5-5-5--5--5-5-5|
  PM|-------------------------------------|
Never said i believed in all those things i've heard
e|----------------------------------------|
B|----------------------------------------|
G|----------------------------------------|
D|--9--9-9-9--9--9-9-9--5--5-5-5--5--5-5-5|
A|--9--9-9-9--9--9-9-9--5--5-5-5--5--5-5-5|
E|--7--7-7-7--7--7-7-7--3--3-3-3--3--3-3-3|
  PM|-------------------------------------|
                         begin rythym fig a
    About you from those rumours now
e|----------------------------------------|
B|----------------------------------------|
G|----------------------------------------|
D|--7--7-7-7--7--7-7-7--7--7-7-7--7--7-7-7|
A|--7--7-7-7--7--7-7-7--7--7-7-7--7--7-7-7|
E|--5--5-5-5--5--5-5-5--5--5-5-5--5--5-5-5|
  PM|-------------------------------------|
 i thought everything was fine  
e|----------------------------------------|
B|----------------------------------------|
G|----------------------------------------|
D|--9--9-9-9--9--9-9-9--5--5-5-5--5--5-5-5|
A|--9--9-9-9--9--9-9-9--5--5-5-5--5--5-5-5|
E|--7--7-7-7--7--7-7-7--3--3-3-3--3--3-3-3|
  PM|-------------------------------------|
                                          end rythym fig a
 But you proved me wrong         And i was taken by surprise
e|----------------------------------------|
B|----------------------------------------|
G|----------------------------------------|
D|--7--7-7-7--7--7-7-7--7--7-7-7--7--7-7-7|
A|--7--7-7-7--7--7-7-7--7--7-7-7--7--7-7-7|
E|--5--5-5-5--5--5-5-5--5--5-5-5--5--5-5-5|
  PM|-------------------------------------|
taken by surprise
(guitar silent)
e|------------------|
B|------------------|
G|------------------|
D|------------------|
A|------------------|
E|------------------|
refrain:
Don't like me,  don't like me   Don't you  know i'm good for nothing
  guitar 1
e|---------------------------------------------------------|
B|---------------------------------------------------------|
G|--------------------------------------------------------7|
D|-9///-----------9///-------------5///---------------5///7|
A|-9///-----------9///-------------5///---------------5///5|
E|-7///-----------7///-------------3///---------------3///-|
   Don't like me, was what you told me when i called you up
e|---------------------------------------------------------|
B|---------------------------------------------------------|
G|-7///----------7///--------------------------------------|
D|-7///----------7///--------------7///---------------7///9|
A|-5///----------5///--------------7///---------------7///9|
E|---------------------------------5///---------------5///7|

(guitar 2 added)lead fig a(played behind next lines)
e|---------------------------------------------------------|
B|---------------------------------------8--7---------------|
G|---------------------------------------------7--6------|
D|---------------------------------------------------------|
A|-------9---------11-12----------12-7---------------------|
E|---------------------------------------------------------|

w/ lead fig a
          Don't like me, don't like me  Don't you know i'm good for nothing
e|---------------------------------------------------------|
B|---------------------------------------------------------|
G|--------------------------------------------------------7|
D|-9///-----------9///-------------5///---------------5///7|
A|-9///-----------9///-------------5///---------------5///5|
E|-7///-----------7///-------------3///---------------3///-|
          Don't like me, whatever i may say to make you feel that way
e|---------------------------------------------------------|
B|---------------------------------------------------------|
G|-7///----------7///--------------------------------------|
D|-7///----------7///--------------7///---------------7///9|
A|-5///----------5///--------------7///---------------7///9|
E|---------------------------------5///---------------5///7|

Solo:guitar 1+ guitar 2(also known as rythym fig b)
phrase 1:
rythym fig b
 guitar 1
e|-------------------------7*---------------------7*-----|
B|-------------8-------------7*---------8-----------7*---|
G|-7------7-------7--9---------7*--7-7-----7--9-------7*-|
D|---------------------7------------------------7--------|
A|-------------------------------------------------------|
E|-------------------------------------------------------|
 guitar 2
e|---------------------------------------------------------------|
B|---------------------------------------------------------------|
G|---------------------------------------------------------------|
D|--9--9--9--9--9-\-5--5--5--5--5-/-7--7--7--7--7-7-7--7--7--7--7|
A|--9--9--9--9--9-\-5--5--5--5--5-/-7--7--7--7--7-7-7--7--7--7--7|
E|--7--7--7--7--7-\-3--3--3--3--3-/-5--5--5--5--5-5-5--5--5--5--5|
    PM|-|   |-|       |-|   |-|       |-|   |-|       |-|   |-|

phrase 2(guitar three added)
 guitar 1
e|---------------------------7--x----7--x----7*---------|
B|-------------8-------------7--x----7--x------7*-------|
G|-7------7-------7--9----9^full--9^full---------7*-----|
D|---------------------7------------------7--------9-let ring|
A|------------------------------------------------------|
E|------------------------------------------------------|
 guitar 3
e|----------------------------7--x----7--x-----7*-------|
B|----------------------------7--x----7--x-------7*-----|
G|-7------7----9--7--9-6---9^full--9^full----------7*---|
D|-----------------------------------------7---------9-let ring|
A|------------------------------------------------------|
E|------------------------------------------------------|
guitar 2
e|---------------------------------------------------------|
B|---------------------------------------------------------|
G|---------------------------------------------------------|
D|--9--9-9--9-9-\-5--5-5--5-5-/-7--7-7--7-7--7--7-7--7-7--7|
A|--9--9-9--9-9-\-5--5-5--5-5-/-7--7-7--7-7--7--7-7--7-7--7|
E|--7--7-7--7-7-\-3--3-3--3-3-/-5--5-5--5-5--5--5-5--5-5--5|

Additional Lyrics
verse 1(repeat)
Could it be i'm a lonely one
e|----------------------------------------|
B|----------------------------------------|
G|----------------------------------------|
D|--9--9-9-9--9--9-9-9--5--5-5-5--5--5-5-5|
A|--9--9-9-9--9--9-9-9--5--5-5-5--5--5-5-5|
E|--7--7-7-7--7--7-7-7--3--3-3-3--3--3-3-3|
  PM|-------------------------------------|
That turned everything so upside down now
e|----------------------------------------|
B|----------------------------------------|
G|----------------------------------------|
D|--7--7-7-7--7--7-7-7--7--7-7-7--7--7-7-7|
A|--7--7-7-7--7--7-7-7--7--7-7-7--7--7-7-7|
E|--5--5-5-5--5--5-5-5--5--5-5-5--5--5-5-5|
  PM|-------------------------------------|
(begin rythym fig a)
Could it be that you told me that you still 
e|----------------------------------------|
B|----------------------------------------|
G|----------------------------------------|
D|--9--9-9-9--9--9-9-9--5--5-5-5--5--5-5-5|
A|--9--9-9-9--9--9-9-9--5--5-5-5--5--5-5-5|
E|--7--7-7-7--7--7-7-7--3--3-3-3--3--3-3-3|
  PM|-------------------------------------|
loved me that  Made me change so quickly now
e|----------------------------------------|
B|----------------------------------------|
G|----------------------------------------|
D|--7--7-7-7--7--7-7-7--7--7-7-7--7--9-9-9|
A|--7--7-7-7--7--7-7-7--7--7-7-7--7--9-9-9|
E|--5--5-5-5--5--5-5-5--5--5-5-5--5--7-7-7|
  PM|-------------------------------------|
                     I heard me when you called
e|----------------------------------------|
B|----------------------------------------|
G|----------------------------------------|
D|--9--9-9-9--9--9-9-9--5--5-5-5--5--5-5-5|
A|--9--9-9-9--9--9-9-9--5--5-5-5--5--5-5-5|
E|--7--7-7-7--7--7-7-7--3--3-3-3--3--3-3-3|
  PM|-------------------------------------|
 refrain:

Don't like me, don't like me
Don't you know i'm good for nothing
Don't like me, was what i told you when you called me up
(w/lead fill a)
Don't like me, don't like me
Don't you know i'm good for nothing
Don't like me, even though inside i know i want you to( w/rythym fig b)
outro: guitar 1+guitar 2+guitar 3

Didn't want to tell you what to do(w/outro)
e|-------------------------7*---------------------7*-----|
B|-------------8-------------7*---------8-----------7*---|
G|-7------7-------7--9---------7*--7-7-----7--9-------7*-|
D|---------------------7------------------------7--------|
A|-------------------------------------------------------|
E|-------------------------------------------------------|
guitar 1
e|---------------------------7--x----7--x----7*---------|
B|-------------8-------------7--x----7--x------7*-------|
G|-7------7-------7--9----9^full--9^full---------7*-----|
D|---------------------7------------------7--------9-let ring|
A|------------------------------------------------------|
E|------------------------------------------------------|
guitar 3                   ()
e|----------------------------7--x----7--x-----7*-------|
B|----------------------------7--x----7--x-------7*-----|
G|-7------7----9--7--9-6---9^full--9^full----------7*---|
D|-----------------------------------------7---------9-let ring|
A|------------------------------------------------------|
E|------------------------------------------------------|
guitar 2
e|---------------------------------------------------------|
B|---------------------------------------------------------|
G|---------------------------------------------------------|
D|--9--9-9--9-9-\-5--5-5--5-5-/-7--7-7--7-7--7--7-7--7-7--7|
A|--9--9-9--9-9-\-5--5-5--5-5-/-7--7-7--7-7--7--7-7--7-7--7|
E|--7--7-7--7-7-\-3--3-3--3-3-/-5--5-5--5-5--5--5-5--5-5--5|

extra notes sub here"()"
e|----------------------------|
B|10^full---------------------|
G|----------9^full-7----------|
D|--------------------9-------|
A|----------------------------|
E|----------------------------|
ending-guitar 1+guitar 2+guitar 3
guitar 1
e|----7*--------------------|
B|-------7*-----------------|
G|----------7*-7------------|
D|--------------------------|
A|--------------------------|
E|--------------------------|
guitar 3
e|----7*--------------------|
B|-------7*-----------------|
G|----------7*-------------|
D|-------------9-------------|
A|--------------------------|
E|--------------------------|
guitar 2
e|--------------------------|
B|--------------------------|
G|--------------------------|
D|-5------------9-------------|
A|-5------------9-------------|
E|-3------------7-------------|

legend:
| /// tremelo picking
| /  slide up
| \  slide down
| h  hammer-on
| p  pull-off
| ~  vibrato
| *  harmonic
| x  Mute note
| ^full =full step bend up
| ^quart=1/4 bend up
| ^3quart=3/4 bend up
Comments