Millencolin - Novo Chords & Tabs

 

Novo Chords & Tabs

Millencolin Chords & Tabs

Version: 2 Type: Tab 0 ratings
1 star 2 stars 3 stars 4 stars 5 stars
comments

Novo Tab

   
millencolin
novo
kingwood
----------------------------------------------------------------------------
tabber: Wobbler
standart tuning
----------------------------------------------------------------------------
theres any weird effect that is used the whloe song

intro guitar one 
e|----------------------------------------------------------------------|
B|----------------------------------------------------------------------|
G|-66-------466-----4/6\466-------466-----4/6\466-------466-----4/6\466-|
D|-66-------466-----4/6\466-------466-----4/6\466-------466-----4/6\466-|
A|-44-------244-----2/4\244-------244-----2/4\244-------244-----2/4\244-|
E|----------------------------------------------------------------------|

     effect    effect      effect    effect      effect    effect

intro guitar one 
e|--------------------------------------------------------|
B|--------------------------------------------------------|
G|-------466-----4/6\4-6-66666-4-44444--------------------|
D|-------466-----4/6\4-6-66666-4-44444-7-77777-4-44444444-|
A|-------244-----2/4\2-4-44444-2-22222-7-77777-4-44444444-|
E|-------------------------------------5-55555-2-22222222-|

  effect    effect

intro guitar one 
e|--------------------------------------------|
B|--------------------------------------------|
G|-6-66666-4-44444-----------------------4-6~-|
D|-6-66666-4-44444-7-77777-4-44444444444-4-6~-|
A|-4-44444-2-22222-7-77777-4-44444444444-2-4~-|
E|-----------------5-55555-2-22222222222------|


verse guitar two 
e|-----------------------------------------------------------------------|
B|-----------------------------------------------------------------------|
G|-6666666666666666-4444444444444444-66666666-88888888-6666666666666-444-|
D|-xxxxxxxxxxxxxxxx-xxxxxxxxxxxxxxxx-xxxxxxxx-xxxxxxxx-xxxxxxxxxxxxx-xxx-|
A|-4444444444444444-2222222222222222-44444444-66666666-4444444444444-222-|
E|-----------------------------------------------------------------------|

verse guitar one 
e|-----------------------------------------------------------------------|
B|-----------------------------------------------------------------------|
G|(6)~~~-----------------------------------------------------------------|
D|(6)~~~-----------------------------------------------------------------|
A|(4)~~~-----------------------------------------------------------------|
E|-----------------------------------------------------------------------|

verse guitar two 
e|-------------------------------------------------------------------|
B|-------------------------------------------------------------------|
G|-6666666666666666-4444444444444444-66666666-88888888-6666666666666-|
D|-xxxxxxxxxxxxxxxx-xxxxxxxxxxxxxxxx-xxxxxxxx-xxxxxxxx-xxxxxxxxxxxxx-|
A|-4444444444444444-2222222222222222-44444444-66666666-4444444444444-|
E|-------------------------------------------------------------------|
[ Tab from: http://www.guitartabs.cc/tabs/m/millencolin/novo_tab_ver_2.html ]
verse guitar one 
e|-------------------------------------------------------------------|
B|-------------------------------------------------------------------|
G|--------------------------------------------------------------66---|
D|--------------------------------------------------------------xx---|
A|-4444444444444444-6666666676667666-77779777-66667666-44444444444---|
E|-------------------------------------------------------------------|
pm ................ ................ ........ ........ ......

verse end guitar two 
e|-----------|
B|-----------|
G|-444444444-|
D|-444444444-|
A|-222222222-|
E|-----------|

verse end guitar one 
e|-----------|
B|-----------|
G|-4-4-4-4-4-|
D|-4-4-4-4-4-|
A|-2-2-2-2-2-|
E|-----------|

chorus guitar one 
e|---------------------------------------|
B|---------------------------------------|
G|-6-66666-4-44444-----------------------|
D|-6-66666-4-44444-7-77777-4-44444444444-|
A|-4-44444-2-22222-7-77777-4-44444444444-|
E|-----------------5-55555-2-22222222222-|

chorus guitar one 
e|--------------------------------------------|
B|--------------------------------------------|
G|-6-66666-4-44444-----------------------4-6~-|
D|-6-66666-4-44444-7-77777-4-44444444444-4-6~-|
A|-4-44444-2-22222-7-77777-4-44444444444-2-4~-|
E|-----------------5-55555-2-22222222222------|

second verse guitar one 
e|-----------------------------------------------------------------------|
B|-----------------------------------------------------------------------|
G|(6)~~~----------6\4~--------------6~------6\4~-----4\2~----------------|
D|(6)~~~----------x-x---------------x-------x-x------x-x-----------------|
A|(4)~~~----------4\2~--------------4~------4\2~-----2\0~----------------|
E|-----------------------------------------------------------------------|

second verse guitar one 
e|-------------------------------------------------------------------|
B|-------------------------------------------------------------------|
G|--------------------------------------------------------------66---|
D|--------------------------------------------------------------xx---|
A|-4444444444444444-6666666676667666-77779777-66667666-44444444444---|
E|-------------------------------------------------------------------|
pm ................ ................ ........ ........ ......

bridge (both guitars the same)
e|----------------------------------------------------------------|
B|----------------------------------------------------------------|
G|-4-44-666-----------4-44-666-----------4-4-66-------------------|
D|-4-44-666-7-7777777-4-44-666-7-7777777-4-4-66-77777777777777777-|
A|-2-22-444-7-7777777-2-22-444-7-7777777-2-2-44-77777777777777777-|
E|----------5-5555555----------5-5555555--------55555555555555555-|

interlude same intro

interlude end guitar one
e|----------|
B|----------|
G|-46666666-|
D|-46xxxxxx-|
A|-24444444-|
E|----------|

outro  
e|-----------------------------------------------------------------|
B|-----------------------------------------------------------------|
G|-4-44-666-----------4-44-666-----------4-44-66-------------------|
D|-4-44-666-7-7777777-4-44-666-7-7777777-4-44-66-77777777777777777-|
A|-2-22-444-7-7777777-2-22-444-7-7777777-2-22-44-77777777777777777-|
E|----------5-5555555----------5-5555555---------55555555555555555-|

outro  
e|------------|
B|------------|
G|-4-4--66----|
D|-4-4--66-7~-|
A|-2-2--44-7~-|
E|---------5~-|

order:
intro
verse 
chorus
second verse
chorus
bridge
interlude
chorus
chorus
outro

corrections at el_diablo7th@freenet.de
Comments