Millencolin - No Cigar Chords & Tabs

 

No Cigar Chords & Tabs

Millencolin Chords & Tabs

Version: 4 Type: Bass Tab 0 ratings
1 star 2 stars 3 stars 4 stars 5 stars
comments

No Cigar Bass Tab

   
-------------------------------------------------------------------------------
			     No Cigar-Millencollin
-------------------------------------------------------------------------------

Tabbed By :Nathanael
e-mail:spike_of_power@hotmail.com
[ Tab from: http://www.guitartabs.cc/tabs/m/millencolin/no_cigar_btab_ver_4.html ]
Tuning:regular eadg
                              intro
G|------------------------------------------------------------------|
D|------------------------------------------------------------------|
A|-4-4-4-4-4-4-4-4--------------------------------------------------|
E|-----------------0-0-0-0-0-0-0-0-5-5-5-5-5-5-5-5-2-2-2-2-2-2-2-2--|
                verse        G|-------------------------------------|
D|------------------------------------------------------------------|
A|-4-4-4-4-4-4-4-4--------------------------------------------------|
E|-----------------0-0-0-0-0-0-0-0-5-5-5-5-5-5-5-5-2-2-2-2-2-2-2-2--|
                                  pre-chorus
G|---------------------------------------------------------------------------|
D|---------------------------------------------------------------------------|
A|---------------------------------------------------------------------------|
E|-5-5-5-5-5-5-5-5-5-5-5-5---------------------------------------------------|
                               chorus
G|---------------------------------------------------------------------------|
D|---------------------------------------------------------------------------|
A|---------------------------------------------------------------------------|
E|-0-0-0-0-0-0-0-0-2-2-2-2-2-2-2-2-5-5-5-5-5-5-5-5-5-5-5-5-5-5-5-5-----------|
                               bridge
G|---------------------------------------------------------------------------------|
D|---------------------------------------------------------------------------------|
A|---------------------------------------------------------------------------------|
E|2-2-2-2-2-2-2-2-2-2-2-2-2-2-5-5-5-5-5-5-5-5-5-5-5-5-5-5-2-2-2-2-2-2-2-2-2-2-2-2--|

G|---------------------------------------------------------------------------|
D|---------------------------------------------------------------------------|
A|---------------------------------------------------------------------------|
E|-9-9-9-9-9-9-9-7-7-7-7-7-7-7-5-5-5-5-5-5-5-5-5-5-5-5-5-5-------------------|
                               end of song
G|---------------------------------------------------------------------------|
D|---------------------------------------------------------------------------|
A|-7-7-7-7-7-7-7-------------------------------------------------------------|
E|--------------0-0-0-0-0-0-0------------------------------------------------|
order of song
intro
verse x2
pre-chorus
chorus x2
verse x2
pre-chorus
chorus x4
bridge
chorus x4
end of song
| /  slide up
| \  slide down
| h  hammer-on
| p  pull-off
| ~  vibrato
| +  harmonic
| x  Mute note
this tab is basically perfect. ive gone over it tons of times and have performed it with 
tabs sounding good. I hope it sounds good to you.tad
===============================================================================
Comments