Millencolin - My Name Is Golden Chords & Tabs

 

My Name Is Golden Chords & Tabs

Millencolin Chords & Tabs

Version: 1 Type: Tab 0 ratings
1 star 2 stars 3 stars 4 stars 5 stars
comments

My Name Is Golden Tab

   
Artist: Millencolin
Song: My Name Is Golden
Album: Kingwood (2005)

Tabbed by: Munky
Email: Andyv86@gmail.com
Tuning: E,A,D,G,B,E

* = Harmonics
PM = Palm Mute
/ = Slide Up
B = Bend

Intro Guitar 1: 
e|---------------------------------------------|---------------------|
B|---------------------------------------------|---------------------|
G|-----------4-----------------7--------7------|------------7---7----|
D|--4-4-4-4--4--4-4-6-6-7-7-7-7--7--9--7--7-9--|--7-7-7-7---7-9-7-9--|
A|--4-4-4-4--2--4-4-6-6-7-7-7-7--5--9--7--5-9--|--7-7-7-7---5-9-5-9--|
E|--2-2-2-2-----2-2-4-6-5-5-5-5-----7--5----7--|--5-5-5-5-----7---7--|
      * * *               * * *                   * * * *

Intro Guitar 2:
e|-----------------------------------------------------------------|
B|------6b(7)-5---6b(7) 5---6b(7)-5---6b(7)-5----------------------|
G|-----------------------------------------------------------------|
D|-----------------------------------------------------------------|
A|-----------------------------------------------------------------|
E|-----------------------------------------------------------------|

Verse Guitar 1:
e|---------------------------------------------|
B|---------------------------------------------|
G|-----------4-------------------7--------7----|
D|--4-4-4-4--4--4-4-6-6-7-7-7-7--7--9--7--7-9--|
A|--4-4-4-4--2--4-4-6-6-7-7-7-7--5--9--7--5-9--|
E|--2-2-2-2-----2-2-4-6-5-5-5-5-----7--5----7--|
      * * *               * * *

Verse Guitar 2:
e|-----------------------------------------------------------------|
B|-----------------------------------------------------------------|
G|---4/--14---13-13-13--11-11-11--9-9-9---9-9-9-9-9-9-9-9----------|
D|---4/--14---13-13-13--11-11-11--9-9-9---9-9-9-9-9-9-9-9----------|
A|---2/--12---11-11-11---9--9--9--7-7-7---7-7-7-7-7-7-7-7----------|
E|-----------------------------------------------------------------|


Pre-Chorus Guitar 1:
e|-------------------------------------------------------------------------|
B|-------------------------------------------------------------------------|
G|---4-4-4-4-4-4-4-4-4-4-4-4-4-4-4-4-7-7-7-7-7-7-7-7-9-9-9-9-9-9-9-9-------|
D|---4-4-4-4-4-4-4-4-4-4-4-4-4-4-4-4-7-7-7-7-7-7-7-7-9-9-9-9-9-9-9-9-------|
A|---2-2-2-2-2-2-2-2-2-2-2-2-2-2-2-2-5-5-5-5-5-5-5-5-7-7-7-7-7-7-7-7-------|
E|-------------------------------------------------------------------------|

Pre-Chorus Guitar 2:
e|-------------------------------------------------------------------------|
B|-------------------------------------------------------------------------|
G|------------------------------------7-7-7-7-7-7-7-7-9-9-9-9-9-9-9-9------|
D|-------------------------------------------------------------------------|
A|------------------------------------5-5-5-5-5-5-5-5-7-7-7-7-7-7-7-7------|
E|-------------------------------------------------------------------------|


Chorus Guitar 1: 
e|---------------------------------------------|---------------------|
B|---------------------------------------------|---------------------|
G|-----------4-----------------7--------7------|------------7---7----|
D|--4-4-4-4--4--4-4-6-6-7-7-7-7--7--9--7--7-9--|--7-7-7-7---7-9-7-9--|
A|--4-4-4-4--2--4-4-6-6-7-7-7-7--5--9--7--5-9--|--7-7-7-7---5-9-5-9--|
E|--2-2-2-2-----2-2-4-6-5-5-5-5-----7--5----7--|--5-5-5-5-----7---7--|
      * * *               * * *                   * * * *

Chorus Guitar 2:
e|-----------------------------------------------------------------|
B|------6b(7)-5---6b(7) 5---6b(7)-5---6b(7)-5----------------------|
G|-----------------------------------------------------------------|
D|-----------------------------------------------------------------|
A|-----------------------------------------------------------------|
E|-----------------------------------------------------------------|


Verse 2 Guitar 1: 
e|---------------------------------------------|---------------------|
B|---------------------------------------------|---------------------|
G|-----------4-----------------7--------7------|---------------------|
D|--4-4-4-4--4--4-4-6-6-7-7-7-7--7--9--7--7-9--|--7-7-7-7------------|
A|--4-4-4-4--2--4-4-6-6-7-7-7-7--5--9--7--5-9--|--7-7-7-7------------|
E|--2-2-2-2-----2-2-4-6-5-5-5-5-----7--5----7--|--5-5-5-5------------|
    PM PM PM PM PM PM PM PM PM PM PM PM PM PM     PM (release slowly)

Verse 2 Guitar 2: 
e|---------------------------------------------|---------------------|
B|---------------------------------------------|---------------------|
G|-----------4-----------------7--------7------|---------------------|
D|--4-4-4-4--4--4-4-6-6-7-7-7-7--7--9--7--7-9--|--7-7-7-7------------|
A|--4-4-4-4--2--4-4-6-6-7-7-7-7--5--9--7--5-9--|--7-7-7-7------------|
E|--2-2-2-2-----2-2-4-6-5-5-5-5-----7--5----7--|--5-5-5-5------------|
    PM PM PM PM PM PM PM PM PM PM PM PM PM PM     PM (release slowly)


Pre-Chorus Guitar 1:
e|-------------------------------------------------------------------------|
B|-------------------------------------------------------------------------|
G|---4-4-4-4-4-4-4-4-4-4-4-4-4-4-4-4-7-7-7-7-7-7-7-7-9-9-9-9-9-9-9-9-------|
D|---4-4-4-4-4-4-4-4-4-4-4-4-4-4-4-4-7-7-7-7-7-7-7-7-9-9-9-9-9-9-9-9-------|
A|---2-2-2-2-2-2-2-2-2-2-2-2-2-2-2-2-5-5-5-5-5-5-5-5-7-7-7-7-7-7-7-7-------|
E|-------------------------------------------------------------------------|

Pre-Chorus Guitar 2:
e|-------------------------------------------------------------------------|
B|-------------------------------------------------------------------------|
G|------------------------------------7-7-7-7-7-7-7-7-9-9-9-9-9-9-9-9------|
D|-------------------------------------------------------------------------|
A|------------------------------------5-5-5-5-5-5-5-5-7-7-7-7-7-7-7-7------|
E|-------------------------------------------------------------------------|


Chorus Guitar 1: 
e|---------------------------------------------|---------------------|
B|---------------------------------------------|---------------------|
G|-----------4-------------------7--------7----|------------7---7----|
D|--4-4-4-4--4--4-4-6-6-7-7-7-7--7--9--7--7-9--|--7-7-7-7---7-9-7-9--|
A|--4-4-4-4--2--4-4-6-6-7-7-7-7--5--9--7--5-9--|--7-7-7-7---5-9-5-9--|
E|--2-2-2-2-----2-2-4-6-5-5-5-5-----7--5----7--|--5-5-5-5-----7---7--|
      * * *               * * *                   * * * *

Chorus Guitar 2:
e|-----------------------------------------------------------------|
B|------6b(7)-5---6b(7) 5---6b(7)-5---6b(7)-5----------------------|
G|-----------------------------------------------------------------|
D|-----------------------------------------------------------------|
A|-----------------------------------------------------------------|
E|-----------------------------------------------------------------|

[ Tab from: http://www.guitartabs.cc/tabs/m/millencolin/my_name_is_golden_tab.html ]
Bridge Guitar 1:
e|---------------------------------------------------------------------------------------------------|  
B|---------------------------------------------------------------------------------------------------|  
G|---4-4-4-4-4-4-4-4-4-4-4-4-4-4-4-4-7-7-7-7-7-7-7-7-11-11-11-11-11-11-11-11-9-9-9-9-9-9-9-9---------|  
D|---4-4-4-4-4-4-4-4-4-4-4-4-4-4-4-4-7-7-7-7-7-7-7-7-11-11-11-11-11-11-11-11-9-9-9-9-9-9-9-9---------|  
A|---2-2-2-2-2-2-2-2-2-2-2-2-2-2-2-2-5-5-5-5-5-5-5-5--9--9--9--9--9--9--9--9-7-7-7-7-7-7-7-7---------| 
E|---------------------------------------------------------------------------------------------------|

e|---------------------------------------------------------------------------------------------------|  
B|---------------------------------------------------------------------------------------------------|  
G|---4-4-4-4-4-4-4-4--7-7-7-7-7-7-7-7--11-11-11-11-11-11-11-11--14-14-14--13-13-13--14---------------|  
D|---4-4-4-4-4-4-4-4--7-7-7-7-7-7-7-7--11-11-11-11-11-11-11-11--14-14-14--13-13-13--14---------------|  
A|---2-2-2-2-2-2-2-2--5-5-5-5-5-5-5-5---9--9--9--9--9--9--9--9--12-12-12--11-11-11--12---------------| 
E|---------------------------------------------------------------------------------------------------|

Bridge Guitar 2:
e|-------------------------------------------------------------------------|
B|-------------------------------------------------------------------------|
G|------------------------------------7-7-7-7-7-7-7-7-9-9-9-9-9-9-9-9------|
D|-------------------------------------------------------------------------|
A|------------------------------------5-5-5-5-5-5-5-5-7-7-7-7-7-7-7-7------|
E|-------------------------------------------------------------------------|


****************Insert Solo Here****************

Solo not tabbed due to no e string :(
Once I get a new e string ill tab out the solo

****************Insert Solo Here****************


Verse 3 Guitar 1:
e|-----------------------------------------------------------------|
B|-----------------------------------------------------------------|
G|---4/--14---13-13-13--11-11-11--9-9-9----------------------------|
D|---4/--14---13-13-13--11-11-11--9-9-9----------------------------|
A|---2/--12---11-11-11---9--9--9--7-7-7----------------------------|
E|-----------------------------------------------------------------|


Verse 3 Guitar 1:
e|-----------------------------------------------------------------------------------------------|
B|-----------------------------------------------------------------------------------------------|
G|--14-14-14-14-14-14-14-14--13-13-13-13-13-13-13 13--11-11-11-11-11-11-11-11-9-9-9-9-9-9-9-9----|
D|--14-14-14-14-14-14-14-14--13-13-13-13-13-13-13 13--11-11-11-11-11-11-11-11-9-9-9-9-9-9-9-9----|
A|--12-12-12-12-12-12-12-12--11-11-11-11-11-11-11-11--9--9--9--9--9--9---9--9-7-7-7-7-7-7-7-7----|
E|-----------------------------------------------------------------------------------------------|

Verse 3 Guitar 2:
e|-----------------------------------------------------------------------------------------------|
B|-----------------------------------------------------------------------------------------------|
G|--9------------------------11-----------------------13----------------------14-----------------|
D|--9------------------------11-----------------------13----------------------14-----------------|
A|--7-------------------------9-----------------------11----------------------12-----------------|
E|-----------------------------------------------------------------------------------------------|


Guitar 1:
e|--------------------------------------------------------------|
B|--------------------------------------------------------------|
G|--14-14-14-14--13-13-13-13--11-11-11-11--9-9-9-9--------------|
D|--14-14-14-14--13-13-13-13--11-11-11-11--9-9-9-9--------------|
A|--12-12-12-12 -11-11-11-11---9--9--9--9--7-7-7-7--------------|
E|--------------------------------------------------------------|

Guitar 2:
e|--------------------------------------------------------------|
B|--------------------------------------------------------------|
G|--9-9-9-9--11-11-11-11--13-13-13-13--14-14-14-14--------------|
D|--9-9-9-9--11-11-11-11--13-13-13-13--14-14-14-14--------------|
A|--7-7-7-7---9--9--9--9--11-11-11-11--12-12-12-12--------------|
E|--------------------------------------------------------------|


Guitar 1:
e|--------------------------------------------------------------|
B|--------------------------------------------------------------|
G|--14-14-14-14--13-13-13-13--11-11-11-11--9-9-9-9--------------|
D|--14-14-14-14--13-13-13-13--11-11-11-11--9-9-9-9--------------|
A|--12-12-12-12 -11-11-11-11---9--9--9--9--7-7-7-7--------------|
E|--------------------------------------------------------------|

Guitar 2:
e|---------------------------------------------|
B|---------------------------------------------|
G|-----------4-------------------7--------7----|
D|--4-4-4-4--4--4-4-6-6-7-7-7-7--7--9--7--7-9--|
A|--4-4-4-4--2--4-4-6-6-7-7-7-7--5--9--7--5-9--|
E|--2-2-2-2-----2-2-4-6-5-5-5-5-----7--5----7--|
      * * *               * * *

Guitar 1:
e|------------------------------------------------------------------|
B|------------------------------------------------------------------|
G|--14-14-14-14--16-16-16-16--18-18-18-18--21-21-21-21--------------|
D|------------------------------------------------------------------|
A|--12-12-12-12 -14-14-14-14--16-16-16-16--19-19-19-19--------------|
E|------------------------------------------------------------------|

Guitar 2:
e|---------------------------------------------|
B|---------------------------------------------|
G|-----------4-------------------7--------7----|
D|--4-4-4-4--4--4-4-6-6-7-7-7-7--7--9--7--7-9--|
A|--4-4-4-4--2--4-4-6-6-7-7-7-7--5--9--7--5-9--|
E|--2-2-2-2-----2-2-4-6-5-5-5-5-----7--5----7--|
      * * *               * * *


Pre-Chorus Guitar 1:
e|------------------------------------------------|  
B|------------------------------------------------|  
G|---4-4-4-4-4-4-4-4--7-7-7-7-7-7-7-7-------------|  
D|---4-4-4-4-4-4-4-4--7-7-7-7-7-7-7-7-------------|  
A|---2-2-2-2-2-2-2-2--5-5-5-5-5-5-5-5-------------| 
E|------------------------------------------------|

Pre-Chorus Guitar 2:
e|---------------------------------------------|
B|---------------------------------------------|
G|-----------4-------------------7--------7----|
D|--4-4-4-4--4--4-4-6-6-7-7-7-7--7--9--7--7-9--|
A|--4-4-4-4--2--4-4-6-6-7-7-7-7--5--9--7--5-9--|
E|--2-2-2-2-----2-2-4-6-5-5-5-5-----7--5----7--|
      * * *               * * *

Chorus Guitar 1: 
e|---------------------------------------------|---------------------|
B|---------------------------------------------|---------------------|
G|-----------4-----------------7--------7------|------------7---7----|
D|--4-4-4-4--4--4-4-6-6-7-7-7-7--7--9--7--7-9--|--7-7-7-7---7-9-7-9--|
A|--4-4-4-4--2--4-4-6-6-7-7-7-7--5--9--7--5-9--|--7-7-7-7---5-9-5-9--|
E|--2-2-2-2-----2-2-4-6-5-5-5-5-----7--5----7--|--5-5-5-5-----7---7--|
      * * *               * * *                   * * * *

Chorus Guitar 2:
e|-----------------------------------------------------------------|
B|------6b(7)-5---6b(7) 5---6b(7)-5---6b(7)-5----------------------|
G|-----------------------------------------------------------------|
D|-----------------------------------------------------------------|
A|-----------------------------------------------------------------|
E|-----------------------------------------------------------------|
Repeat Chorus x4


End Both Guitars:
e|----------|  
B|----------|  
G|----------|  
D|---4-4----|  
A|---4-4----| 
E|---2-2----|


If you are going to use my tab on any other site please give me credit.
It took me hours to tab it out and i believe this is the first tab for this song anywhere.

Keep your eyes peeled for the solo coming soon!
Comments