Millencolin - Moosemans Jukebox Chords & Tabs

 

Moosemans Jukebox Chords & Tabs

Millencolin Chords & Tabs

Version: 1 Type: Tab

Moosemans Jukebox Tab

   
-------------------------------------------------------------------------------
			     moosemans jukebox- Millencolin
-------------------------------------------------------------------------------
Tabbed by: millencolin_89
Email: millencolin_89@hotmail.com
This is my first tab. It sounds pretty close to me. I hope it sounds good to you.
Tuning:

Guitar 1 intro/ chorus. play underlined bit on the last time
e|-----------------------------------------------------------------------------|
B|-----------------------------------------------------------------------------|
G|---------99--11----8888---11-11-11-11-11-11---666666--------13-13-13-13------|x2
D|-666666----------------------------------------------------------------------|
A|-666666--77-- 9----6666---9--9--9--9--9--9----444444--------11-11-11-11------|
E| 444444----------------------------------------------------------------------|

 Guitar 2 intro
e|-----------------------------------------------------------------------------|
B|-----------------------------------------------------------------------------|
G|-----------------444444------------------------------------------------------|x2
D|666666--222222---444444----444444--------------------------------------------|
A|666666--222222---222222----444444--------------------------------------------|
E|444444--000000-------------222222--------------------------------------------|

Guitar1- verse the first bit is played between the small break in the lyrics
e|-----------------------------------------------------------------------------|
B|-----------------------------------------------------------------------------|
G|-13-13-13-13--------------------------------------13-13-13-13----------------|
D|-----------------------------------------------------------------------------|
A|-11-11-11-11--------------------------------------11-11-11-11----------------|
E|-----------------------------------------------------------------------------|

Guitar2- verse
e|-----------------------------------------------------------------------------|
B|-----------------------------------------------------------------------------|
G|-13-11-13-11-13-11-13-11-13-11-13-11-13-11-13-11-13-11-13-11-13-11-13-11-13--|
D|-----------------------------------------------------------------------------|
A|-11--9-11--9--11-9-11--9-11--9-11--9-11--9-11--9-11-9--11--9-11--9-11--9-11--|
E|-----------------------------------------------------------------------------|
Pm****************************************************************************

Chorus
[ Tab from: http://www.guitartabs.cc/tabs/m/millencolin/moosemans_jukebox_tab.html ]
Guitar1_verse2
e|-----------------------------------------------------------------------------|
B|-----------------------------------------------------------------------------|
G|-888888----13-13-13-13-13-13----11-11-11-11-11-11-----666666-----------------|x2
D|-----------------------------------------------------------------------------|
A|-666666----11-11-11-11-11-11---- 9--9--9--9--9--9-----444444-----------------|
E|-----------------------------------------------------------------------------|

Guitar 2-verse 2
e|-----------------------------------------------------------------------------|
B|-----------------------------------------------------------------------------|
G|-13-11-13-11-13-11-13-11-13-11-13-11-13-11-13-11-13-11-13-11-13-11-13-11-----|x2
D|-----------------------------------------------------------------------------|
A|-11--9-11--9-11--9-11--9-11--9-11--9-11--9-11--9-11--9-11--9-11--9-11--9-----|
E|-----------------------------------------------------------------------------|
Pm*****************************************************************************

Chorus


Guitar1 bridge

e|-----------------------------------------------------------------------------|
B|-----------------------------------------------------------------------------|
G|-66666666----99999999--------------------------------------------------------|x2
D|-------------------------9999---4444-----------------------------------------|
A|-44444444----77777777--------------------------------------------------------|
E|-------------------------7777---2222-----------------------------------------|


Guitar 2 bridge
e|---------------------------------------------------------------------------|
B|---------------------------------------------------------------------------|
G|-66666666---99999999-------------------------------------------------------|
D|-66666666---99999999----9999----4444---------------------------------------|x2
A|-44444444---77777777----9999----4444---------------------------------------|
E|------------------------7777----2222---------------------------------------|


Guitar 1 outro play underlined part on the last time
e|-----------------------------------------------------------------------------|
B|-----------------------------------------------------------------------------|
G|-----------99-11-8888--11-11-11-11-11-11--666666----6666666666666666666/-6---|
D|-666666----------------------------------------------------------------------|x4
A|-666666----77--9-6666---9--9--9--9--9--9--444444----4444444444444444444/-8---|
E|-444444----------------------------------------------------------------------|

Guitar 2 outro
              Play underlined part on the last time
e|---------------------------------------------------------------------------|
B|---------------------------------------------------------------------------|
G|--------------------444444-------------------------------------------------|x4
D|-666666---2222222---444444----444444--------------4444444444444444444/--6--|
A|-666666---2222222---222222----444444--------------4444444444444444444---6--|
E|-444444---0000000-------------222222--------------2222222222222222222/--4--|




|   slide down
| h  hammer-on
| p  pull-off
| ~  vibrato
| +  harmonic
| x  Mute note
===============================================================================