Millencolin - Montego Chords & Tabs

 

Montego Chords & Tabs

Millencolin Chords & Tabs

Version: 5 Type: Tab 0 ratings
1 star 2 stars 3 stars 4 stars 5 stars
comments

Montego Tab

Band: Millencolin
Song: Montego
Tabbed by jorn2003

INTRO:
e|----------------------------------------|
B|----------------------------------------|
G|----------------------------------------|
D|--4-4-4-4-2-2-2-7--7-7-7-2-2-2----------|
A|--4-4-4-4-2-2-2-7--7-7-7-2-2-2----------|
E|--2-2-2-2-0-0-0-5--5-5-5-0-0-0----------|

e|----------------------------------------|
B|----------------------------------------|
G|--4-4-4-4---------------9-9-------------|
D|--4-4-4-4-2-2-2-7--7-7-79-9-------------|
A|--2-2-2-2-2-2-2-7--7-7-77-7-------------|
E|----------0-0-0-5--5-5-5----------------|

e|----------------------------------------|
B|----------------------------------------|
G|-------------------------9-9------------|
D|--4-4-4-4-2-2-2-7--7-7-7-9-9------------|
A|--4-4-4-4-2-2-2-7--7-7-7-7-7------------|
E|--2-2-2-2-0-0-0-5--5-5-5----------------|

e|----------------------------------------|
B|----------------------------------------|
G|--4-4-4-4----------------9--------------|
D|--4-4-4-4-2-2-2-7--7-7-7-9--------------|
A|--2-2-2-2-2-2-2-7--7-7-7-7--------------|
E|----------0-0-0-5--5-5-5----------------|

Verse:
only bass,then:
e|----------------------------------------|
B|----------------------------------------|
G|----------------------------------------|
D|----------------------------------------|
A|--7-7-7/12~~~~~~--------12-12-12-12-12--|
E|----------------------------------------|


e|----------------------------------------|
B|10--9-9--10-9-9-10----------------------|
G|-8--8-8---8-8-8-9-----------------------|
D|-7--7-7---7-7-7-9-----------------------|
A|----------------------------------------|
E|----------------------------------------|

Pre-Chorus:
e|----------------------------------------|
B|----------------------------------------|
G|-7-7-7-7-7-7-7-7-7-7-7-7-7-7-7-7-7-7-7--|
D|-7-7-7-7-7-7-7-7-7-7-7-7-7-7-7-7-7-7-7--|
A|-5-5-5-5-5-5-5-5-5-5-5-5-5-5-5-5-5-5-5--|
E|----------------------------------------|
[ Tab from: http://www.guitartabs.cc/tabs/m/millencolin/montego_tab_ver_5.html ]
e|----------------------------------------|
B|----------------------------------------|
G|-7-7-7-7-7-7-7-7-7-7-7-7-7-7-9-9--------|
D|-7-7-7-7-7-7-7-7-7-7-7-7-7-7-9-9--------|
A|-5-5-5-5-5-5-5-5-5-5-5-5-5-5-7-7--------|
E|----------------------------------------|

Chorus:
e|----------------------------------------|
B|----------------------------------------|
G|-------------------------9-9------------|
D|--4-4-4-4-2-2-2-7--7-7-7-9-9------------|
A|--4-4-4-4-2-2-2-7--7-7-7-7-7------------|
E|--2-2-2-2-0-0-0-5--5-5-5----------------|

e|----------------------------------------|
B|----------------------------------------|
G|--4-4-4-4----------------9--------------| x2
D|--4-4-4-4-2-2-2-7--7-7-7-9--------------|
A|--2-2-2-2-2-2-2-7--7-7-7-7--------------|
E|----------0-0-0-5--5-5-5----------------|

e|----------------------------------------|
B|----------------------------------------|
G|--7-7-7-7-7-7-7-7-7-9-9-9-9-9-9-9-9-9-9-|
D|--7-7-7-7-7-7-7-7-7-9-9-9-9-9-9-9-9-9-9-|
A|--5-5-5-5-5-5-5-5-5-7-7-7-7-7-7-7-7-7-7-|
E|----------------------------------------|

e|----------------------------------------|
B|----------------------------------------|
G|----------------------------------------|
D|--9\----9\------------------------------|
A|--9\----9\------------------------------|
E|--7\----7\------------------------------|

Outro:
e|-----------------------------------------|
B|-----------------------------------------|
G|----------------2-2-2-2-2----------------|
D|--4-4-4-4-2-2-2-2-2-2-2-2-2-2-2----------|
A|--4-4-4-4-2-2-2-0-0-0-0-0-2-2-2----------|
E|--2-2-2-2-0-0-0-----------0-0-0----------|

e|------------------------------------------|
B|------------------------------------------|
G|--4-4-4-4-------2-2-2-2-2-----------------| x2
D|--4-4-4-4-2-2-2-2-2-2-2-2-2-2-2-----------|
A|--2-2-2-2-2-2-2-0-0-0-0-0-2-2-2-----------|
E|----------0-0-0-----------0-0-0-----------|

e|------------------------------------------------|
B|------------------------------------------------|
G|--7-7-7-7-7-7-7-7-7-7-7-7-7-7-7-7-7-7-7-7-7-7-7-|
D|--7-7-7-7-7-7-7-7-7-7-7-7-7-7-7-7-7-7-7-7-7-7-7-|
A|--5-5-5-5-5-5-5-5-5-5-5-5-5-5-5-5-5-5-5-5-5-5-5-|
E|------------------------------------------------|

e|----------------------------------------|
B|----------------------------------------|
G|--9-9-9-9-9-9-9-9-9-9--9\----9\---------|
D|--9-9-9-9-9-9-9-9-9-9--9\----9\---------|
A|--7-7-7-7-7-7-7-7-7-7--7\----7\---------|
Comments