Millencolin - Montego Chords & Tabs

 

Montego Chords & Tabs

Millencolin Chords & Tabs

Version: 4 Type: Tab 0 ratings
1 star 2 stars 3 stars 4 stars 5 stars
comments

Montego Tab

Artist: Millencolin
Song  : Montego
Album : Home From Home
Tab   : by Connor Reen

Comments: Please note that if you are playing by yourself dont bother about the
          lead guitar as you dont need it. I think it is 98% correct. If you have
          any comments or corrections could you please email me at
          conza__neero@hotmail.com. Thank you.

	Standard Tuning

	Ledgend
		/-Slide up

	Intro/Chorus (Guitar 1)

 e------------------------------------------------------|
 B------------------------------------------------------|
 G------------------------------------------------------|
 D---4-4-4--2-2--7-7-7--2-2--9-9-9--2-2--7-7-7--14-14---|
 A---4-4-4--2-2--7-7-7--2-2--9-9-9--2-2--7-7-7--14-14---|
 E---2-2-2--0-0--5-5-5--0-0--7-7-7--0-0--5-5-5--12-12---|

	Lead Intro/Chorus (Guitar 2)
 e----------------------------------------------------|
 B----------------------------------------------------|
 G---4-4-4--2-2--7-7-7--2-2--9-9-9--2-2--7-7-7--14----|
 D---4-4-4--2-2--7-7-7--2-2--9-9-9--2-2--7-7-7--14----|
 A---2-2-2--0-0--5-5-5--0-0--7-7-7--0-0--5-5-5--12----|
 E----------------------------------------------------|
[ Tab from: http://www.guitartabs.cc/tabs/m/millencolin/montego_tab_ver_4.html ]
	Verse
 e-------------------------------------------------------|
 B-------------------------------------------------------|
 G---11-11-11-11---14-14-14-14---9-9-9-9---11-11-11-11---|
 D---11-11-11-11---14-14-14-14---7-7-7-7----9--9--9--9---|
 A----9--9--9--9---12-12-12-12---7-7-7-7-----------------|
 E-------------------------------------------------------|

	Fill 1				Fill 2
 e-----------------        e------------------------------|
 B-----------------        B------------------------------|
 G---x-x-x-x--14-        G---7----------7--7---7-7--------|
 D---x-x-x-x--14- x16        D---7  x10 ----7--7---7-7----|
 A---x-x-x-x--12-        A---5----------5--5---5-5--------|
 E---x-x-x-x-------        E------------------------------|


	Fill 3				Lead Fill(slowly)
 e------------------        e---------------|
 B------------------        B---------------|
 G---14--------9----        G---------------|
 D---14 x12 ---9- x20        D---5/7/9/11---|
 A---12--------7----        A---------------|
 E------------------        E---------------|

	Ending
 e------------------------|
 B------------------------|
 G---14------16----7--7---|
 D---14 x18--16 x2-7--7---|
 A---12------14----5--5---|
 E------------------------|

	Order
Intro/Chorus        			x 2
Intro/Chorus with Lead Intro/Chorus     x 2
Verse					x 2
Fill 1
Intro/Chorus				x 2
Fill 2
Fill 1
Intro/Chorus with Lead Intro/Chorus     x 2
Fill 3	(with lead fill not sure when lead comes in)x 2
Intro/Chorus				x 2
Intro/Chorus with Lead Intro/Chorus     x 4
Ending

That's it that is most of the song.

IMPORTANT: This tab may be freely distributed but cannot be sold to anyone
            unless given permission.
Comments