Millencolin - Mayfly Chords & Tabs

 

Mayfly Chords & Tabs

Millencolin Chords & Tabs

Version: 1 Type: Tab 0 ratings
1 star 2 stars 3 stars 4 stars 5 stars
comments

Mayfly Tab

Author: Millencolin
Song: the Mayfly
Tabber:Cru$}{3r
Tuning: Standard
Artists Homepage: http://www.millencolin.com

I've testet many tabs of this song. But no tab was right. So here is the right tab I think:

intro:    
e------------------------------------------------|
B------------------------------------------------|
G--9-9-------------6--4---6--4---6--4---6--4--9--|
D--9-9---9-9--9-9--6--4---6--4---6--4---6--4--x--|
A--7-7---9-9--9-9--4--2---4--2---2--2---4--2--7--|
E--------7-7--7-7--------------------------------|

later this variation of the intro:
e---------------------------------------------|
B---------------------------------------------|
G--9-9----------------------------------------|
D--9-9--9-9--9-9--7-7--7--7-7--7--7-7--7--7-7-|
A--7-7--9-9--9-9--7-7--7--7-7--7--7-7--7--7-7-|
E-------7-7--7-7--5-5--5--5-5--5--5-5--5--5-5-|



 1st verse (Palm Muted!)
e--------------------------------------------|
B--------------------------------------------|
G--9-9---------6--4---6--4---6--4---6--4--9--|
D--x-x---9-9---x--x---x--x---x--x---x--x--x--|
A--7-7---x-x---4--2---4--2---2--2---4--2--7--|
E--------7-7---------------------------------|

Chorus:
e-------------------------------------------------------------------|
B-------------------------------------------------------------------|
G--9-9-9-9-9-9-9-9-9-9-9-9-9-9-9-9----------------------------------|
D--9-9-9-9-9-9-9-9-9-9-9-9-9-9-9-9-9-9-9-9-9-9-9-9-7-7-7-7-7-7-7-7--|
A--7-7-7-7-7-7-7-7-7-7-7-7-7-7-7-7-9-9-9-9-9-9-9-9-7-7-7-7-7-7-7-7--|
E--------------------------------------7-7-7-7-7-7-5-5-5-5-5-5-5-5--|
[ Tab from: http://www.guitartabs.cc/tabs/m/millencolin/mayfly_tab.html ]
2nd verse:
e-----quiet-----------------------------------------------------|
B-----quiet-------------------------------------------------9^--|
G-----quiet-----------9~---------6--4---6--4---6--4---6--4------|
D-----quiet-----------x~----------------------------------------|
A-----quiet-----------7~----------------------------------------|
E-----quiet-----------------------------------------------------|  ^= Bend

interlude:
e-----------------------------------|
B-----------------------------------|
G-----------------------------------|
D--9-9-9-9-9-9-9-9-7-7-7-7-7-7-7-7--|
A--9-9-9-9-9-9-9-9-7-7-7-7-7-7-7-7--|
E--7-7-7-7-7-7-7-7-5-5-5-5-5-5-5-5--|

solo:
e-----------------------------------9-12/14-12\------------------| 
B--------12/14-12~-----9-10-9-10-9----------------9-10-9-10-9-10-|
G----------------------------------------------------------------|
D----------------------------------------------------------------|
A----------------------------------------------------------------|
E----------------------------------------------------------------|

e-----------------------------------9-12/14-12/9------------11-12-11-12|
B--------12/14-12~-----9-10-9-10-9----------------9-10-9-10------------|
G----------------------------------------------------------------------|
D----------------------------------------------------------------------|
A----------------------------------------------------------------------|
E----------------------------------------------------------------------|

e--------13/16-13--11-13-11-11-13\----|
B-------------------------------------|    / = Slide
G-------------------------------------|    \ = Slide Down
D-------------------------------------|
A-------------------------------------|
E-------------------------------------|
   
intro            X2
verse1           X2
intro (variation)X1
intro            X1
chorus           X4
intro            X2
verse2           X1
intro (variation)X1
intro            X1
chorus           X4
interlude        X2
solo
chorus           X4



Comments