Millencolin - Man Or Mouse Chords & Tabs

 

Man Or Mouse Chords & Tabs

Millencolin Chords & Tabs

Version: 2 Type: Bass Tab

Man Or Mouse Bass Tab

Band: Millencolin
Song: Bass solo for Man or Mouse
Album: Home From Home///Burning Heart Records


|------------------------------------|
|------------------------------------|
|------------------------------------|
|12-12-12-12-12-12-7-8-10-10-10-10-10|

|-----------------------------------|
|-----------------------------------|
|-----------------------------------|
|12-5-5-5--5-5-5-5-0-2-3-3-3-3-3-3-3|

|------------------------------------|
|------------------------------------|
|------------------------------------|
|12-12-12-12-12-12-7-8-10-10-10-10-10|
[ Tab from: http://www.guitartabs.cc/tabs/m/millencolin/man_or_mouse_btab_ver_2.html ]
|-----------------------------------|
|-----------------------------------|
|-----------------------------------|
|12-5-5-5--5-5-5-5-0-2-3-3-3-3-3-3-3|

|------------------------------------|
|------------------------------------|
|------------------------------------|
|12-12-12-12-12-12-7-8-10-10-10-10-10|

|-----------------------------------|
|-----------------------------------|
|-----------------------------------|
|12-5-5-5--5-5-5-5-0-2-3-3-3-3-3-3-3|

|------------------------------------|
|------------------------------------|
|------------------------------------|
|12-12-12-12-12-12-7-8-10-10-10-10-10|

|-----------------------------------|
|-----------------------------------|
|-----------------------------------|
|12-5-5-5--5-5-5-5-0-2-3-3-3-3-3-3-3|