Millencolin - Man Or Mouse Chords & Tabs

 

Man Or Mouse Chords & Tabs

Millencolin Chords & Tabs

Version: 1 Type: Bass Tab 0 ratings
1 star 2 stars 3 stars 4 stars 5 stars
comments

Man Or Mouse Bass Tab

   
--------------------------------------------------------------------------------
                            Mouse Or Man - Millencolin
--------------------------------------------------------------------------------

Artist: Millencolin
Song: Mouse Or Man (Track 1)
Albulm: Home From Home
Tabbed by: ZeroisGreatman
Tunning: EADG

Intro:
G|-------------------|
D|-------------------|
A|-5-5-5-5-5-5-5-5-5-|
E|-------------------|

Chorus/Pre-Verse: 
"Yeah, yeah, yeah, yeah!..."/"Mouse more then man yes I am..."
G|------------------------------------------------------------------|
D|------------------------------------------------------------------|
A|-5-5-5-5-5-5-5-5--3-3-3-3-3-3-3-----------------------------------|
E|---------------------------------3-3-3-3-3-3-3-3--1-1-1-1-1-1-1-1-|
[ Tab from: http://www.guitartabs.cc/tabs/m/millencolin/man_or_mouse_btab.html ]
Verse: "Hear me, I sound like a beettle..."
G|------------------------------------|
D|------------------------------------|
A|-5-5-5-5--3-3-3-3-------------------|
E|-------------------3-3-3-3--1-1-1-1-|

Pre-Chorus: "Just like a mouse follows the flute..."
G|------------------------------------|
D|------------------------------------|
A|-5-5-5-5-5-5-5-5-5--8-8-8-8-8-8-8-8-|
E|------------------------------------|

Bridge: "So no more, sound like a beetle..."
G|--------------------------------------------------------------------|
D|-------------3-5--------------0-3-----------------------------------|
A|-5-5-5-5-5-5------3-3-3-3-3-3------------------3-5--------------2-3-|
E|-----------------------------------3-3-3-3-3-3------1-1-1-1-1-1-----|

================================================================================
Comments