Millencolin - Lozin Must Chords & Tabs

 

Lozin Must Chords & Tabs

Millencolin Chords & Tabs

Version: 3 Type: Tab 0 ratings
1 star 2 stars 3 stars 4 stars 5 stars
comments

Lozin Must Tab

   
If you're going to play whit CD player, you have to tune to a lower Ess. 

/=slide up
\=slide down
*=mute
b=bend
r=releas bend (bend back)

Intro.

WHEN I AM!

Vers.
  Lozin' must in a conversation ...
E------------------------------------------------------------------------
B------------------------------------------------------------------------
G------------------------------------------------------------------------x2
D-44444444------------------------------66666666-------------------------
A-22222222-22222222------------66666666-44444444-*22222222222222*-(4)----
E----------00000000-x2---------44444444----------*00000000000000*-(2)x1 first time.

Refr.

E-----------------------------------------------------------------------------
B-----------------------------------------------------------------------------
G-----------------------------------------------------------------------------
D-4444444444444444-8888888888888888-------------------------------------------x2
A-2222222222222222-6666666666666666-6666666666666666-2222222222222222-(4)-----
E-----------------------------------4444444444444444-0000000000000000-(2)x1)the last time.

vers 2 (Same as Vers 1.)

Refr (same as Refr 1)


Bridge part 1.

E----------------------------------------------------------------
B----------------------------------------------------------------
G----------------------------------------------------------------
D-4-*444444*-8-*888888*-9-*999999*-11-*111111111111*-------------
A-2-*222222*-6-*666666*-7-*777777*--9-*9-9-9-9-9-9*--------------
E----------------------------------------------------------------

E----------------------------------------------------------------
B----------------------------------------------------------------
G----------------------------------------------------------------
D-4-*444444*-8-*888888*-9-9-9-9--11-111111111111-----------------
A-2-*222222*-6-*666666*-7-7-7-7--9--9-9-9-9-9-9------------------
E----------------------------------------------------------------

Bridge part 2
[ Tab from: http://www.guitartabs.cc/tabs/m/millencolin/lozin_must_tab_ver_3.html ]
It's been a tough time for... 
E----------------------------------------------------------------
B----------------------------------------------------------------
G----------------------------------------------------------------
D----------------------------------------------------------------x2
A-6666666666666666--2222222222222222-----------------------------
E-4444444444444444--0000000000000000-----------------------------

E---------------------------------------------------------------------
B---------------------------------------------------------------------
G---------------------------------------------------------------------
D---------------------------------------------------------------------
A-6666666666666666-9999999999999999-99999999999999999999999999999999--
E-4444444444444444-6666666666666666-77777777777777777777777777777777--

Solo.
remember: bend the string up hard, like from 4 to 6. hope you understand..
listen to the CD to correct your bending.

E----------------------------------------------------------------
B----------------------------------------------------------------
G---b11r----b11r---9-8-----9-8------8-11-8-----------------------
D-9-----9-8------9-----9-6-----9-11--------11--------------------
A----------------------------------------------------------------
E----------------------------------------------------------------

E----b14r-------b14r---12-11------12-11---11/12\11--b14r---------
B-12------12-11------12-----12---------12------------------------
G------------------------------11--------------------------------
D----------------------------------------------------------------
A----------------------------------------------------------------
E----------------------------------------------------------------

refr.
 Must be strong ...
E-----------------------------------------------------------------------------
B-----------------------------------------------------------------------------
G-----------------------------------------------------------------------------
D-4444444444444444-8888888888888888-------------------------------------------x2
A-2222222222222222-6666666666666666-6666666666666666-2222222222222222---------
E-----------------------------------4444444444444444-0000000000000000---------

Outro.

E----------------------------------------------------------------
B----------------------------------------------------------------
G----------------------------------------------------------------
D-*4*-4444-*8*-8888-*9*-9999-11----------------------------------
A-*2*-2222-*6*-6666-*7*-7777--9----------------------------------
E----------------------------------------------------------------


1: Vers.
2: Refr.
3: Vers.
4: Refr.
5: Bridge.
6: Solo.
7: Refr.
8: Outro.

I'll Hope You Learned Lozin' Must now. Have A God Time! //Micke
Comments