Millencolin - Lights Out Chords & Tabs

 

Lights Out Chords & Tabs

Millencolin Chords & Tabs

Version: 2 Type: Bass Tab 0 ratings
1 star 2 stars 3 stars 4 stars 5 stars
comments

Lights Out Bass Tab

Song: Light`s out
Band: Millencolin
Album: For monkeys
tabbed by: Carlos Pino

guitar intro

then                                            x2
G:---------------------------------------------------------------
D:---------------------------------------------------------------
A:-3>--6>-------------------3>-------------------------------
E:------------4>--6>--3>------------------------------------

verse                                           x4
G:---------------------------------------------------------------
D:---------------------------------------------------------------
A:--3>--6>---------------------------------------------------
E:-------------6>--4>----------------------------------------
[ Tab from: http://www.guitartabs.cc/tabs/m/millencolin/lights_out_btab_ver_2.html ]
chorus
G:-----------------------3-5---------------------------------------
D:-----------------3-5-------5-3----------------------------------
A:------------3>---------------------------------------------------
E:-1>--4>---------------------------------------------------------
                 x1                      x1     x2      
G:------------------------------------------3-5-----------------------
D:-------------------------------------3-5------5-3------------------
A:-----------3>------------------3>----------------------------------
E:-1>--4>------6>--1>--4>-------------------------4>---6>----

riff 1                                          x2
G:---------------------------------------------------------------
D:---------------------------------------------------------------
A:--3>----------------------------------------------------------
E:---------4>---6>---------------------------------------------

bridge the ''I feel ashame !'' part
G:---------------------------------------------------------------
D:---------------------------------------------------------------
A:--3>--------3>--------------------3>-----------------------
E:--------4>--------6>---4>--1>--------4>---1>---6>----

chorus


Comments