Millencolin - Leona Chords & Tabs

 

Leona Chords & Tabs

Millencolin Chords & Tabs

Version: 1 Type: Tab 0 ratings
1 star 2 stars 3 stars 4 stars 5 stars
comments

Leona Tab

   
Band: Millencolin
Song: Leona
Tab by: guy_zonda@hotmail.com
------                             

Intro riff
                                                          
e-|----------------------------------------------------------------|
B-|----------------------------------------------------------------|
G-|------------------7-7----7-9-7----------9-7-7-7----7-9-7----7-9-|
D-|-7-7-7-7-10-10-10-----10-------7--7-7-7---------10-------10-----|
A-|----------------------------------------------------------------|
E-|----------------------------------------------------------------| Repeat

[ Tab from: http://www.guitartabs.cc/tabs/m/millencolin/leona_tab.html ]
Verse 
                                          
    A G F       G C A        A G F       G C C 
      
e-|--------------------------------------------------|
B-|--------------------------------------------------|
G-|---------------5------------------------5-5-5-5-5-|
D-|-7-5-3-3-3-3-5-5-7-7-7-7--7-5-3-3-3-3-5-5-5-5-5-5-|
A-|-7-5-3-3-3-3-5-3-7-7-7-7--7-5-3-3-3-3-5-3-3-3-3-3-| 
E-|-5-3-1-1-1-1-3---5-5-5-5--5-3-1-1-1-1-3-----------| Repeat


Chorus

    A         F         G         C    G

e-|---------------------------------------|
B-|---------------------------------------|
G-|-------------------------------5-5-----|
D-|-7-7-7-7-7-3-3-3-3-3-5-5-5-5-5-5-5-5-5-|
A-|-7-7-7-7-7-3-3-3-3-3-5-5-5-5-5-3-3-5-5-|
E-|-5-5-5-5-5-1-1-1-1-1-3-3-3-3-3-----3-3-| Repeat


Intro riff

second verse - same chords as first

Chorus again but ends with palm mute A chords


slow part

    A       F       G       C

e-|-5-5-5-5-1-------3-3-3-3-3-------|
B-|-5-5-5-5-1-------3-3-3-3-5-------|
G-|-5-5-5-5-2-------4-4-4-4-5-------|
D-|-7-7-7-7-3-------5-5-5-5-5-------|
A-|-7-7-7-7-3-------5-5-5-5-3-------|
E-|-5-5-5-5-1-------3-3-3-3---------| 6 times

!-!-!-!Guytano!-!-!-!
this is just about it   ENJOY
Comments