Millencolin - Kemp Chords & Tabs

 

Kemp Chords & Tabs

Millencolin Chords & Tabs

Version: 9 Type: Tab 0 ratings
1 star 2 stars 3 stars 4 stars 5 stars
comments

Kemp Tab

   
Title:Kemp
Artist:Millencolin
Album:Home from Home

           
  Always Distort:

Intro:

e ---------------------------------
b ---------------------------------
g -----------------4-4-4-4-2-2-2-2-            X2
a -4-4-4-4-2-2-2-2-4-4-4-4-2-2-2-2-
d -4-4-4-4-2-2-2-2-2-2-2-2-0-0-0-0-
E -2-2-2-2-0-0-0-0-----------------

e --------------------------------------
b --------------------------------------
g -11-------13------14------14----------
a -x--(x16)-x--(x4)-x--(x8)-x-----------
d -9--------11------12------12----------
E --------------------------------------

e ----------------------------------------------------
b ----------------------------------------------------
g -11-------9--14------13------14------16-9--11-9-11--
a -x--(x15)-x--x--(x3)-x--(x5)-x--(x3)-x--x--x--x--x--
d -9--------7--12------11------12------14-7--9--7--9--
E ----------------------------------------------------


Verse:

e ---------------------------
b ---------------------------
g ---------------------------       
a ------------------------4--
d ------------------------4--
E ------------------------2--
...to choose my own wars 



e ------------------------------------------------------
b ------------------------------------------------------
g --------------------------------------4-4-4-4-2-2-2-2-
a --------------------------------------4-4-4-4-2-2-2-2-
d --------------------------------------2-2-2-2-0-0-0-0-
E ------------------------------------------------------
...it's not me against the world no more 

Pre chours:

e ---------------------------------
b ---------------------------------
g -----------------4-4-4-4-2-2-2-2-   X4
a -4-4-4-4-2-2-2-2-4-4-4-4-2-2-2-2-
d -4-4-4-4-2-2-2-2-2-2-2-2-0-0-0-0-
E -2-2-2-2-0-0-0-0-----------------
When you are sure as hell then I don't know....

Chorus:

e ----------------------------------------
e ----------------------------------------
b ----------------------------------------
g -7--------------------------------------
a -7-(x16)--------------------------------
d -5--------------------------------------
E ----------------------------------------
A spoke in your whell yeah like a bugging fly.....


e ----------------------------------------
b ----------------------------------------
g -9--------------------------------------
a -9-(x16)--------------------------------
d -7--------------------------------------
E ----------------------------------------
A thorn in your side just like a constant red fly.... 


e ----------------------------------------
e ----------------------------------------
b ----------------------------------------
g -7--------------------------------------
a -7-(x16)--------------------------------
d -5--------------------------------------
E ----------------------------------------
On being an ass I've really been a pro......


e ----------------------------------------
b ----------------------------------------
g -9--------------------------------------
a -9-(x12)--------------------------------
d -7--------------------------------------
E ----------------------------------------
          So can i say no?!

After:
[ Tab from: http://www.guitartabs.cc/tabs/m/millencolin/kemp_tab_ver_9.html ]
e --------------------------------------
b --------------------------------------
g -11-------13------14------14----------
a -x--(x16)-x--(x4)-x--(x8)-x-----------
d -9--------11------12------12----------
E --------------------------------------
                        can i say no?!
e ----------------------------------------------------
b ----------------------------------------------------
g -11-------9--14------13------14------16-9--11-9-11--
a -x--(x15)-x--x--(x3)-x--(x5)-x--(x3)-x--x--x--x--x--
d -9--------7--12------11------12------14-7--9--7--7--
E ----------------------------------------------------
   can i say no!               Can i say no!       
Verse:

e ------------------------------------------------------------
b ------------------------------------------------------------
g ---------------------------------------------------------4--       
a ---------------------------------------------------------4--
d ---------------------------------------------------------2--
E ------------------------------------------------------------
I know I've tread on your toes and it shows who I am


e -----------------------------------------------
b -----------------------------------------------
g --------------------4-4----4-4----4-4----4-4---       
a --------------------4-4----4-4----4-4----4-4---  
d---------------------2-2----2-2----2-2----2-2--- 
E -----------------------------------------------
  ...They were damned 

Pre chours:

e ---------------------------------
b ---------------------------------
g -----------------4-4-4-4-2-2-2-2-   X4
a -4-4-4-4-2-2-2-2-4-4-4-4-2-2-2-2-
d -4-4-4-4-2-2-2-2-2-2-2-2-0-0-0-0-
E -2-2-2-2-0-0-0-0-----------------
I feel a need to stop when you say go.....


                     
                      [Chours:]




pre solo:
e --------------------------------------------------------------------------
b --------------------------------------------------------------------------
g -------------11-11-9-11---11-11--9-11--11--11--11----11--------14---------
a --------------x--x-x--x----x--x--x--x---x---x---x--]--x--(x8)---x--(x8)---
d --------------9--9-7--9----9--9--7--9---9---9---9-----9--------12---------
E --------------------------------------------------------------------------
What can i say?

Solo:

e -------------------------------------------------------
b ----19----19----19----19----19----19----19----19----19-
g -18----18----18----18----18----18----18----18----18----
a -------------------------------------------------------
d -------------------------------------------------------
E -------------------------------------------------------

e ----------------------------------------------------
b -18-16-14-11----14----14----14----14----14----14-11-
g -------------11----11----11----11----11----11-------
a ----------------------------------------------------
d ----------------------------------------------------
E ----------------------------------------------------

e -------------------------------------------------------
b ----19----19----19----19----19----19----19--19---------
g -18----18----18----18----18----18----18----------------
a -------------------------------------------------------
d -------------------------------------------------------
E -------------------------------------------------------

Outro:                                                   ---- 
e --------------------------------------                    '
b --------------------------------------                    '
g -11-------13------14------14----------                    '
a -x--(x16)-x--(x4)-x--(x8)-x-----------                    '
d -9--------11------12------12----------                    '
E --------------------------------------                    '
                        can i say no?!                      ' (X2)
e ----------------------------------------------------      '
b ----------------------------------------------------      '
g -11-------9--14------13------14------16-9--11-9-11--      '
a -x--(x15)-x--x--(x3)-x--(x5)-x--(x3)-x--x--x--x--x--      '
d -9--------7--12------11------12------14-7--9--7--7--      '
E ----------------------------------------------------      '
   can i say no!               Can i say no!                '
                                                            '
                                                            '           
                                                         ---- 




And it is the best that i can do.Good sound!!!!!
Comments