Millencolin - Kemp Chords & Tabs

 

Kemp Chords & Tabs

Millencolin Chords & Tabs

Version: 8 Type: Tab 0 ratings
1 star 2 stars 3 stars 4 stars 5 stars
comments

Kemp Tab

Millencolin
Kemp

Tabbed by Karl Gale
Whosontop2nite@hotmail.com

Intro

Guitar 1  (x2 clean, with effects then x4 heavy distortion)


E|---------------------------------------------------|
B|---------------------------------------------------|
G|---------------------------------------------------|
D|--4-4-4-4-2-2-2-2-9-9-9-7-7-7-9-7------------------|
A|--4-4-4-4-2-2-2-2-9-9-9-7-7-7-9-7------------------|
D|--4-4-4-4-2-2-2-2-9-9-9-7-7-7-9-7------------------|

[ Tab from: http://www.guitartabs.cc/tabs/m/millencolin/kemp_tab_ver_8.html ]
Guitar 2 (x2, come in on when guitar one begins 3rd bar)

E|------------------------------------------------------------------------------|
B|--7-7-7-7-7-7-7-7-7-7-7-7-7-7-7-5-10-10-10-9-9-9-9-10-10-10-10-12-10-7-9-5----|
G|------------------------------------------------------------------------------|
D|------------------------------------------------------------------------------|
A|------------------------------------------------------------------------------|
D|------------------------------------------------------------------------------|
Comments