Millencolin - Kemp Chords & Tabs

 

Kemp Chords & Tabs

Millencolin Chords & Tabs

Version: 5 Type: Tab 0 ratings
1 star 2 stars 3 stars 4 stars 5 stars
comments

Kemp Tab

   
Song: Kemp
Artist: Millencolin
Transcribed By: Duncan Muggleton

This is a brilliant song! 
First I'll give you all the parts, then the order is at the bottom

p.m. = Palm-muted
b = Bend
r = rest
x = dead note

Main Riff (Guitar 1)

e |------------------------------|
B |------------------------------|
G |---------------4-4-4-2-2--2---|
D |-4-4-4-2-2--2--4-4-4-2-2--2---|
A |-4-4-4-2-2--2--2-2-2-0-0--0---|
E |-2-2-2-0-0--0-----------------|

(Guitar 2)

e |------------------------------------------------------------------------------|
B |------------------------------------------------------------------------------|
G |-11111111111111111111111111119-14-14-14-13-13-13-13-13-14-14-14-16-16-9-119---|
D |-x-x-x-x-x-x-x-x-x-x-x-x-x-x-x-x--x--x--x--x--x--x--x--x--x--x--x--x--x-x-x---|
A |-9-9-9-9-9-9-9-9-9-9-9-9-9-9-7-12-12-12-11-11-11-11-11-12-12-12-14-14-7-9-7---|
E |------------------------------------------------------------------------------|
	(That's 11 not 1)

Verse

e |------------------------------|
B |------------------------------|
G |---------------4-4-4-2-2--2---|
D |-4-4-4-2-2--2--4-4-4-2-2--2---|
A |-4-4-4-2-2--2--2-2-2-0-0--0---|
E |-2-2-2-0-0--0-----------------|
p.m..............................

Chorous

e |-------------------------------------------------------------------|
B |-------------------------------------------------------------------|
G |-7-7-7-7-7-7-7-7-7-7-7-7-7-7-7-7-9-9-9-9-9-9-9-9-9-9-9-9-9-9-9-9---|
D |-7-7-7-7-7-7-7-7-7-7-7-7-7-7-7-7-9-9-9-9-9-9-9-9-9-9-9-9-9-9-9-9---|
A |-5-5-5-5-5-5-5-5-5-5-5-5-5-5-5-5-7-7-7-7-7-7-7-7-7-7-7-7-7-7-7-7---|
E |-------------------------------------------------------------------|

Bit before solo
[ Tab from: http://www.guitartabs.cc/tabs/m/millencolin/kemp_tab_ver_5.html ]
e |------------------------------------------------------------------------------------------|
B |-------------------------10----------------------------10---------------------------------|
G |-11---------------9-11-9----11------------------9-11-9----11-11-11-11-11-11-11-11-11-11---|
D |------------------------------------------------------------------------------------------|
A |------------------------------------------------------------------------------------------|
E |------------------------------------------------------------------------------------------|

Bit before solo continued

e |---------------------------------------------|
B |---------------------------------------------|
G |-11-11--14-14-14-14-14-14-14-14-14-14-14-----|
D |---------------------------------------------|
A |---------------------------------------------|
E |---------------------------------------------|

Solo

e |-----14-----14-----14-----14-----14-----14-----14-----14-----14--------------|
B |-12b----12b----12b----12b----12b----12b----12b----12b----12b----12br-14-11---|
G |-----------------------------------------------------------------------------|
D |-----------------------------------------------------------------------------|
A |-----------------------------------------------------------------------------|
E |-----------------------------------------------------------------------------|

Solo continued

e |--------------------------------------------------------------------------------|
B |----8----8----8----8----8----8-----12--12----12-12----12-12----12-12----12-12---|
G |--------------------------------9b--------9b-------9b-------9b-------9b---------|
D |-11---11---11---11---11---11----------------------------------------------------|
A |--------------------------------------------------------------------------------|
E |--------------------------------------------------------------------------------|

Bit after solo

e |-----14----------------------|
B |-12b-----a bunch of times----|
G |---------with variation------|
D |-----------------------------|
A |-----------------------------|
E |-----------------------------|

Guitar 1 ends on

e |-----|
B |-----|
G |-----|
D |-4---|
A |-4---|
E |-2---|

Guitar 2 ends on

e |------|
B |------|
G |-11---|
D |-x----|
A |-9----|
E |------|

Song parts order:

Main riff (Guitar 1 x 2) (Guitar 2 x 1)
Verse x 4
Main riff x 4
Chorous x 2
Main riff (Guitar 1 x 4) (Guitar 2 x 2)

Verse 2 has no guitar

Main riff x 4
Chorous x 2
Bit before solo (Verse chords x 4)
Solo (Chorous chords x 2)
Bit after solo (Chorous chords x 2)
Main riff (Guitar 1 x 4)
Main riff (Guitar 1 x 4) (Guitar 2 x 2)
End


This is a great song, which doesn't take much to play. It's easy but sounds impressive when
you play it.


	
Comments