Millencolin - Kemp Chords & Tabs

 

Kemp Chords & Tabs

Millencolin Chords & Tabs

Version: 4 Type: Tab 0 ratings
1 star 2 stars 3 stars 4 stars 5 stars
comments

Kemp Tab

This is the new Millencolin single form their new album Home From Home
we just pulled it off ourself... the other tab for this song is good but i think its off in 

one spot...

Intro
e|-----------------------------|
g|-----------------------------|
b|-----------------------------|
d|--444--2222--9999--7777------|
a|--444--2222--9999--7777------|
E|--222--0000--7777--5555------|
[ Tab from: http://www.guitartabs.cc/tabs/m/millencolin/kemp_tab_ver_4.html ]
Verse (palm muted half way through go back to intro)
e|-----------------------------|
g|---x4everything--------------|
b|-----------------------------|
d|--4----2--9--7---------------|
a|--4----2--9--7---------------|
E|--2----0--7--5---------------|
(chorus same as intro)

after chorus
e|-----------------------------|
g|-----------------------------|
b|--7------9-------------------|
d|--7------9-------------------|
a|--5 x16--7 x16---------------|
E|-----------------------------|

I dont know the solo...

that little piece rite before goes...

e|--0--2--0--5--2--------------|
g|-----------------------------|
b|-----------------------------|
d|-----------------------------|
a|-----------------------------|
E|-----------------------------|

I hope you enjoy for any compliments, questions or praise
Just send an e-mail to me at youlookalikamon@hotmail.com.

Enjoy John.P
Comments