Millencolin - Kemp Chords & Tabs

 

Kemp Chords & Tabs

Millencolin Chords & Tabs

Version: 2 Type: Tab 0 ratings
1 star 2 stars 3 stars 4 stars 5 stars
comments

Kemp Tab

   
MILLENCOLIN - KEMP
im pretty sure this is 100%, but if its not, the its pretty close
iv tabbed both guitars, and iv written it so theyre in time with
each other so its easy to read

you'll see ^ ,which means bend the string on the fret board
so it makes a higher pitched sound.

INTRO
guitar 1
e|----------------------------------
B|----------------------------------
G|---------44422240--------44422240-
D|-44402220444222404440222044422240- x2
A|-44402220222000204440222022200020-
E|-22200000--------22200000---------

guitar 2
e|-----------------5554444455577----
B|-7777777777777777-------------575-
G|----------------------------------
D|---------------------------------- x2
A|----------------------------------
E|----------------------------------

VERSE 1, part 1
guitar 1 (plam mute) plays this 2 times
e|----------------------------------
B|----------------------------------
G|---------44422242--------44422242-
D|-44442222444222424444222244422242-
A|-44442222222000204444222222200020-
E|-22220000--------22220000---------

guitar 2, on the second time
e|----------------------------------
B|----------------------------------
G|-------------------------44422242-
D|-4-----------------------44422242-
A|-4-----------------------22200020-
E|-2--------------------------------

VSERSE 1, part 2
both guitars
e|----------------------------------
B|----------------------------------
G|---------44422240--------44422240-
D|-44402220444222404440222044422240- x2
A|-44402220222000204440222022200020-
E|-22200000--------22200000---------

PRE-CHORUS
guitar 1
e|------------------------------------------------------------------
B|------------------------------------------------------------------
G|-7777777777777777999999999999999977777777777777779999999999999999-
D|-7777777777777777999999999999999977777777777777779999999999999999-
A|-5555555555555555777777777777777755555555555555557777777777777777-
E|------------------------------------------------------------------

guitar 2
e|---------------------------------------------44445555555555555555-
B|---------------------------------777777777777---------------------
G|------------------------------------------------------------------
D|------------------------------------------------------------------
A|------------------------------------------------------------------
E|------------------------------------------------------------------

CHORUS
guitar 1
e|----------------------------------
B|----------------------------------
G|---------44422240--------44422240-
D|-44402220444222404440222044422240- x2
A|-44402220222000204440222022200020-
E|-22200000--------22200000---------

guitar 2
e|-----------------5554444455577----
B|-7777777777777777-------------575-
G|----------------------------------
D|---------------------------------- x2
A|----------------------------------
E|----------------------------------

VERSE 2, part 1 (mostly just bass)
bass line
G|------------------------------------------------------------------
D|------------------------------------------------------------------
A|---------22200020--------22200020--------22200020--------22200020-
E|-22200000--------22200000--------22200000--------22200000---------

guitar 1 
e|------------------------------------------------------------------
B|------------------------------------------------------------------
G|------------------------------------------------------------------
D|-4-------------------------------4--------------------------------
A|-4-------------------------------4--------------------------------
E|-2-------------------------------2--------------------------------

guitar 2, on the second time
e|-----------------------------------------------------99-------9/0-
B|-------------------------------------------------77------77-------
G|------------------------------------------------------------------
D|------------------------------------------------------------------
A|------------------------------------------------------------------
E|------------------------------------------------------------------

VERSE 2, part 2
both guitars
e|----------------------------------
B|----------------------------------
G|---------44422240--------44422240-
D|-44402220444222404440222044422240- x2
A|-44402220222000204440222022200020-
E|-22200000--------22200000---------
[ Tab from: http://www.guitartabs.cc/tabs/m/millencolin/kemp_tab_ver_2.html ]
PRE-CHORUS
guitar 1
e|------------------------------------------------------------------
B|------------------------------------------------------------------
G|-7777777777777777999999999999999977777777777777779999999999999999-
D|-7777777777777777999999999999999977777777777777779999999999999999-
A|-5555555555555555777777777777777755555555555555557777777777777777-
E|------------------------------------------------------------------

guitar 2
e|---------------------------------------------44445555555555555555-
B|---------------------------------777777777777---------------------
G|------------------------------------------------------------------
D|------------------------------------------------------------------
A|------------------------------------------------------------------
E|------------------------------------------------------------------

BRIDGE
bass
G|------------------------------------------------------------------
D|------------------------------------------------------------------
A|---------22200020--------22200020--------22200020--------22200020-
E|-22200000--------22200000--------22200000--------22200000---------

guitar 1 
e|------------------------------------------------------------------
B|------------------------------------------------------------------
G|-----------------------------------------44422242--------44422242-
D|-4-------------------------------44442222444222424444222244422242-
A|-4-------------------------------44442222222000204444222222200020-
E|-2-------------------------------22220000--------22220000---------
                          palm mute........................
guitar 2, on the second time
e|-0h22---------02052-----------0202---2---2---2---2\55555557777777-
B|------------------------------------------------------------------
G|------------------------------------------------------------------
D|------------------------------------------------------------------
A|------------------------------------------------------------------
E|------------------------------------------------------------------


SOLO
G|------------------------------------------------------------------
D|------------------------------------------------------------------
A|-5555555555555555777777777777777755555555555555557777777777777777-
E|------------------------------------------------------------------

guitar 1 
e|------------------------------------------------------------------
B|------------------------------------------------------------------
G|-7777777777777777999999999999999977777777777777779999999999999999-
D|-7777777777777777999999999999999977777777777777779999999999999999-
A|-5555555555555555777777777777777755555555555555557777777777777777-
E|------------------------------------------------------------------

guitar 2
e|---9--9-9--9--9-9--9--9-99/752----55-55-5-55-55-5-77-77-7-77-77-7-
B|-7^-7^-7-7^-7^-7-7^-7^-7---------2--2--2-2--2--2-7--7--7-7--7--7--
G|------------------------------------------------------------------
D|------------------------------------------------------------------
A|------------------------------------------------------------------
E|------------------------------------------------------------------


bass
G|------------------------------------------------------------------
D|------------------------------------------------------------------
A|-5555555555555555777777777777777755555555555555557777777777777777-
E|------------------------------------------------------------------

guitar 1 
e|------------------------------------------------------------------
B|------------------------------------------------------------------
G|-7777777777777777999999999999999977777777777777779999999999999999-
D|-7777777777777777999999999999999977777777777777779999999999999999-
A|-5555555555555555777777777777777755555555555555557777777777777777-
E|------------------------------------------------------------------

guitar 2
e|-9^---75752520---9^---75752520---9^---75752520---9^99^9999^99^99^-
B|------------------------------------------------------------------
G|------------------------------------------------------------------
D|------------------------------------------------------------------
A|------------------------------------------------------------------
E|------------------------------------------------------------------

CHORUS (OUTRO)
guitar 1
e|----------------------------------
B|----------------------------------
G|---------44422240--------44422240-
D|-44402220444222404440222044422240- x4
A|-44402220222000204440222022200020-
E|-22200000--------22200000---------

guitar 2 
e|-----------------5554444455577----
B|-7777777777777777-------------575-
G|----------------------------------
D|---------------------------------- x3
A|----------------------------------
E|----------------------------------

on the 4th time, guitar 2 uses bends,
like this.....
e|-----------------5554444455577------
B|-777^777^777^777^-------------5757^-
G|------------------------------------
D|------------------------------------
A|------------------------------------
E|------------------------------------

thats it......have fun
Comments