Millencolin - Kemp Chords & Tabs

 

Kemp Chords & Tabs

Millencolin Chords & Tabs

Version: 10 Type: Tab 0 ratings
1 star 2 stars 3 stars 4 stars 5 stars
comments

Kemp Tab

Millencolin
Kemp
Home From Home
Guitarist: Mathias Färm and Erik Ohlsson
Tabbed by: Marcelo Riffo (Mark Mathias)

Ok this is a pretty easy and cool song from the new stuff of mc, so
let`s go with the song and not so much talk.But Im gonna let a little message:
Im from chile, Viva chile mierda!!!!, eSTE TAB eS PARA mI Muñequita,MIClaudia
Andrea Perez Burdiles
Te amo!!!!!! I love you!!!!!! y para el Nacho(Q Te valla la Raja Con la Cami!) y Todos
los integrantes de Mi grupo SKAUCH!!! skauch la lleva!!!! Feliz Navidad para todos
los pasteles.
:-)
Here we go.....

Intro: With effects, normal tuning (Mathias Färm)


e[-------------------------]
b[-------------------------]
g[-------------4444-2222---]
d[---4444-2222-4444-2222---] X 8
a[---4444-2222-2222-0000---]
E[---2222-0000-------------]At 3 time comes the second guitar and do the 
                            next riff:
Riff:

e|----------------------------------------------------------------]
B|----------------------------------------------------------------]
G|---1111111111111111111111---141414---131313---141414---161616---]
D|---1111111111111111111111---141414---131313---141414---161616---] X 2
A|---9 9 9 9 9 9 9 9 9 9 9 ---121212---111111---121212---141414---]
E|----------------------------------------------------------------]


Verse:

e[-------------------------]
b[-------------------------]
g[-------------4444-2222---] X 4
d[---4444-2222-4444-2222---] 
a[---4444-2222-2222-0000---]at 4th time guitar 2 makes a pick slide and 
E[---2222-0000-------------]do the pre chorus:


Pre Chorus:

e[-------------------------]
b[-------------------------]
g[-------------4444-2222---] 
d[---4444-2222-4444-2222---] X 4 
a[---4444-2222-2222-0000---] 
E[---2222-0000-------------] Both Guitars



Chorus:

e|------------------------------------|
B|------------------------------------|
G|---777777777777---999999999999------|
D|---777777777777---999999999999------| X 2
A|---555555555555---777777777777------| 
E|------------------------------------| Both Guitars


Then:

e[-------------------------]
b[-------------------------]
g[-------------4444-2222---] X 4
d[---4444-2222-4444-2222---] 
a[---4444-2222-2222-0000---]  
E[---2222-0000-------------]

Guitar 2(Mathias Färm) do this again:

e|----------------------------------------------------------------]
B|----------------------------------------------------------------]
G|---1111111111111111111111---141414---131313---141414---161616---]
D|---1111111111111111111111---141414---131313---141414---161616---] X 2
A|---9 9 9 9 9 9 9 9 9 9 9 ---121212---111111---121212---141414---]
E|----------------------------------------------------------------]


Verse 2:

e[--------]
b[--------]
g[--------] X 4
d[---4^---] 
a[---4^---] ^ = Let it ring  
E[---2^---]

at 4th time Guitar 1(Erik Ohlsson) do this:


e[------------------------------]
b[------------------------------]
g[---------1818-------18/0------] 
d[---1616--------1616-----------] It`s 16 not 1-6, It`s 18 not 1-8. 
a[------------------------------]  
E[------------------------------]

Then Pre-Chorus:


e[-------------------------]
b[-------------------------]
g[-------------4444-2222---] X 4
d[---4444-2222-4444-2222---] 
a[---4444-2222-2222-0000---]Both Guitars  
E[---2222-0000-------------]


Chorus:

[ Tab from: http://www.guitartabs.cc/tabs/m/millencolin/kemp_tab_ver_10.html ]
e|------------------------------------|
b|------------------------------------|
g|---777777777777---999999999999------|
d|---777777777777---999999999999------| X 2
a|---555555555555---777777777777------|Both Guitars 
E|------------------------------------|

Guitar 1 (Erik Ohlsson)do the Bridge/Pre Solo:

e[------------------------------------------------------------]
b[------------------------------------------------------------]
g[------------------------------------------------------------]
d[---------7--------------------------------------------------]
a[---7-9-7---9---7-9-7-9--9--9--9--9--99999999-121212121212---]
E[------------------------------------------------------------]

Solo(Erik Ohlsson):


e[------14-----14----14----14----14----14----14----14----14--------------------
b[-----------------------------------------------------------------------------
g[---16b---16b---16b---16b---16b---16b---16b---16b---16b-----161616-14---------
d[---------------------------------------------------------------------16-14---	CONTINUES:
a[-----------------------------------------------------------------------------
E[-----------------------------------------------------------------------------

e[---------------------------------------------]
b[--------------------------11-11-11-10--------]
g[-------------------------9--9--9-----11-99---]After solo guitar 1 keeps playing something
d[--18--18--18--18--18-------------------------]like this:
a[17--17--17--17--17--17-----------------------]And Guitar 2 do The Chorus:         
E[---------------------------------------------]

e[----------------------------------------------------------------------------------------]
b[----------------------------------------------------------------------------------------]
g[---17b-17-15-----------17b-17-15---------17b-17-15----------1717171717171717171717-19---]
d[------------17-151515-----------17-151515---------17-151515-----------------------------]
a[----------------------------------------------------------------------------------------]
E[----------------------------------------------------------------------------------------]

Chorus:


e|------------------------------------|
b|------------------------------------|
g|---777777777777---999999999999------|
d|---777777777777---999999999999------| X 2
a|---555555555555---777777777777------|Just guitar 2 
E|------------------------------------|

then The Outro:


e[-------------------------]
b[-------------------------]
g[-------------4444-2222---] 
d[---4444-2222-4444-2222---] X 8
a[---4444-2222-2222-0000---]Both Guitars  
E[---2222-0000-------------]

At 4th time guitar 2 (Mathias Färm) Makes next thing:  


e|----------------------------------------------------------------]
b|----------------------------------------------------------------]
g|---1111111111111111111111---141414---131313---141414---161616---]
d|---1111111111111111111111---141414---131313---141414---161616---] X 2
a|---9 9 9 9 9 9 9 9 9 9 9 ---121212---111111---121212---141414---]
E|----------------------------------------------------------------]

Guitar 2 (Mathias Färm) ends on:

e[--------]
b[--------]
g[---11---]
d[---11---]
a[---9 ---]
E[--------]


Guitar 1 (Erik Ohlsson) Ends on:

e[-------]
b[-------]
g[-------]
d[---4---]
a[---4---]
E[---2---]

That`s IT!!!, i saw how do they play kemp live, and they do it like that,
Millencolin Rocks!

Or Whatever you want email-me!!!
Comments