Millencolin - Home From Home Chords & Tabs

 

Home From Home Chords & Tabs

Millencolin Chords & Tabs

Version: 3 Type: Tab 0 ratings
1 star 2 stars 3 stars 4 stars 5 stars
comments

Home From Home Tab

Artist: MILLENCOLIN   M*C rules!!
Song: Home From Home
Album Home From Home(2002) 
 Intro
e|--------------------------------------------------
B|--------------------------------------------------
G|-------------999----------------------------------
D|-7-7-7-7-7-7-999----------------------------------
A|-7-7-7-7-7-7-777----------------------------------
E|-5-5-5-5-5-5--------------------------------------

  part 1 of verse 1
e|-----let-her-ring---------------------------------
B|-10:----------------------------------------------
G|-9 :----------------------------------------------
D|-7 :----------------------------------------------
A|--------------------------------------------------
E|--------------------------------------------------

  part 2 of verse 1
e|----------------------------------------
B|----------------------------------------the notes in the 
G|--------------7----------(9)------------brackets only do 
D|-7-9--------7---9-7----9----(11)-(9-7)--the note the one time 
A|-----9-7--------------------------------
E|----------------------------------------
 
  Last part of verse 1
e|-------------------
B|-------------------
G|-9:-------9-9------
D|-9:-------9-9------
A|-7:-------7-7------
E|-------------------

  part 1 of Chorus  2x
e|-----------------------
B|-----------------------
G|-----77779999----------
D|-7777777799997777--4x--
A|-7777555577777777------
E|-5555--------5555------
[ Tab from: http://www.guitartabs.cc/tabs/m/millencolin/home_from_home_tab_ver_3.html ]
  Part 2 of Chorus         2x or something like that
e|------------------------------
B|------------------------------
G|-----9-9----------------------
D|-7-7-9-9-7-7------------------
A|-7-7-7-7-7-7------------------
E|-5-5-----5-5------------------   

  Part 1 verse 2        
e|-------------------------------
B|-10xx10xx----------------------repeat 
G|-9 xx9 xx-----------------------as
D|-7 xx7 xx-----------------------needed
A|-------------------------------
E|-------------------------------  

  part 2 of verse 2           2x
e|----------------------------------------
B|----------------------------------------the notes in the 
G|--------------7----------(9)------------brackets only do 
D|-7-9--------7---9-7----9----(11)-(9-7)--the note the one time 
A|-----9-7--------------------------------
E|----------------------------------------
 
  Last part of verse 1
e|-------------------
B|-------------------
G|-9:---9999-repeat--
D|-9:---9999-as------1x
A|-7:---7777-needed--
E|-------------------

Chorus Part 1

Part 2 Chorus 2 

e|----------------------------------------
B|----------------------------------------
G|-9:---7/9:---7/9:-99999997/9:-9999999:--
D|-9:---7/9:---7/9:-99999997/9:-9999999:--1x
A|-7:---5/7:---5/7:-77777775/7:-7777777:--
E|----------------------------------------

  Solo
e|-12--12--12--12--15p12--3x---12--12--12--12------------
B|---------------------------------------------15/13-----
G|-------------------------------------------------------1x
D|-------------------------------------------------------
A|-------------------------------------------------------
E|-------------------------------------------------------
Comments