Millencolin - Home From Home Chords & Tabs

 

Home From Home Chords & Tabs

Millencolin Chords & Tabs

Version: 1 Type: Tab 0 ratings
1 star 2 stars 3 stars 4 stars 5 stars
comments

Home From Home Tab

   
====================================================================
                             MILLENCOLIN-HOME FROM HOME
====================================================================
               *      x5       *    
E|-------------------------------------
B|-------------------------------------
G|-6-6-6-6-6-6-999-6-66-6-6-6-6-999999-
D|-7-7-7-7-7-7-999-7-77-7-7-7-7-999999- let this last chord 
A|-7-7-7-7-7-7-777-7-77-7-7-7-7-777777- ring for
E|-5-5-5-5-5-5-----5-55-5-5-5-5-------- first half of verse
   . . . . . .          . . . . the dots mean don't let 
                                that chord ring

Then a different guitar pick slides into this part of the verse:
E|-----------------------------------------
B|---------------7---------9---------------
G|-----6-----------777-------999-----6-----
D|-------777-7-7-------9-9-------------7---
A|-7-7-------5-5-------7-7-------7---------
E|-5-5---------------------------5---------

E|-----------------------------------------
B|---------------7-------------------------
G|-----6-----------777-9---------6-6-------
D|-------777-7-7-------9---------7-7-------
A|-7-7-------5-5-------7---------7-7-------
E|-5-5---------------------------5-5-------
                                 . 
Chorus:
E|-------------------------------------
B|---------7-77-7777-9-9-999-----------
G|-6-6-666-7-77-7777-9-9-999-6-66-6666-
D|-7-7-777-7-77-7777-9-9-999-7-77-7777-
A|-7-7-777-5-55-5555-7-7-777-7-77-7777-
E|-5-5-555-------------------5-55-5555-

E|---------------------------------------
B|---------7-77-7777-9-9-999-------------
G|-6-6-666-7-77-7777-9-9-999-6-(6)-6-(6)-
D|-7-7-777-7-77-7777-9-9-999-7-(7)-6-(7)-
A|-7-7-777-5-55-5555-7-7-777-7-(7)-7-(7)-
E|-5-5-555-------------------5-(5)-5-(5)-

E|------------------------
B|------------------------
G|-111-6-(6)-6-(6)-999999-
D|-222-7-(7)-6-(7)-999999-
A|-222-7-(7)-7-(7)-777777- chords in () are played 
E|-000-5-(5)-5-(5)-------- by a different guitar

First half of second verse:
E|-----------------------------------------
B|-----------------------------------------
G|-----------------------------------------
D|-----------xxxx-7----xxxx-9-------------- x2
A|-xxxx-7----xxxx-5----xxxx-7----xxxx-7----
E|-xxxx-5------------------------xxxx-5----
[ Tab from: http://www.guitartabs.cc/tabs/m/millencolin/home_from_home_tab.html ]
Pick slide into second part of second verse:
E|-----------------------------------------
B|---------------7---------9---------------
G|-----6-----------777-------999-----6-----
D|-------777-7-7-------9-9-------------7---
A|-7-7-------5-5-------7-7-------7---------
E|-5-5---------------------------5---------

E|-----------------------------------------
B|---------------7---------9---------------
G|-----6-----------777-------777-66666666--
D|-------777-7-7-------9-9-------77777777--strum A chord until chorus
A|-7-7-------5-5-------7-7-------77777777--until chorus
E|-5-5---------------------------55555555--

Chorus 2 (play it twice):
E|-------------------------------------
B|---------7-77-7777-9-9-999-----------
G|-6-6-666-7-77-7777-9-9-999-6-66-6666-
D|-7-7-777-7-77-7777-9-9-999-7-77-7777-
A|-7-7-777-5-55-5555-7-7-777-7-77-7777-
E|-5-5-555-------------------5-55-5555-

E|-------------------------------------
B|---------7-77-7777-9-9-999-----------
G|-6-6-666-7-77-7777-9-9-999-6-66-6666-
D|-7-7-777-7-77-7777-9-9-999-7-77-7777-
A|-7-7-777-5-55-5555-7-7-777-7-77-7777-
E|-5-5-555-------------------5-55-5555- 

Bridge (this is right after chorus):
E|----------------------------------------------------
B|----------------------------------------------------
G|-77-9-------------7-9-------------7-9-9-9-9-9-9-9-7-
D|-77-9-------------7-9-------------7-9-9-9-9-9-9-9-7-
A|-55-7-------------5-7-------------5-7-7-7-7-7-7-7-5-
E|----------------------------------------------------

E|------------------
B|------------------
G|-9999999999999999-
D|-9999999999999999-
A|-7777777777777777-
E|------------------

Solo Chords:
E|----------------
B|------7-77-77---
G|-6-66-7-77-77-6-
D|-7-77-7-77-77-7- 
A|-7-77-5-55-55-7- x4
E|-5-55---------5-

After the Solo one guitar plays this
twice and then two guitars play it twice and then
they play the starred part:
                   *      *
E|-------------------------
B|-------------------------
G|-999-6-66-6-6-6-6-999999-
D|-999-7-77-7-7-7-7-999999-
A|-777-7-77-7-7-7-7-777777-
E|-----5-55-5-5-5-5--------
            . . . .

Then play the chorus 2 three times and go into this again
wtih both guitars:
            *
E|------------------
B|------------------
G|-999-6-66-6-6-6-6-
D|-999-7-77-7-7-7-7-
A|-777-7-77-7-7-7-7-
E|-----5-55-5-5-5-5-
            . . . .

Do that three times and on the fourth time end on the chord
marked with a star and let it ring.

I think most of this is right.  I couldn't figure out the
solo though, only the chords behind it.  If you
have it send it to me at sk8erpunk@boisesk8ers.com.
If you have any other corrections post you own tab.
Comments