Millencolin - Highway Donkey Chords & Tabs

 

Highway Donkey Chords & Tabs

Millencolin Chords & Tabs

Version: 1 Type: Tab 0 ratings
1 star 2 stars 3 stars 4 stars 5 stars
comments

Highway Donkey Tab

HIGHWAY DONKEY - Millencolin

Tabbed by: Frank Rank Pank
Email: franky_holdar@hotmail.com

^=palm-muted

Intro x2
e|--------------------------------------------------------------------------------|
B|--------------------------------------------------------------------------------|
G|--14-14-14------11-12-11-12-11-12-------11-12-11-12-11-12------11-12-11-12------|
D|--14-14-14--9---11-12-11-12-11-12--12---11-12-11-12-11-12--9---11-12-11-12--12--|
A|--12-12-12--9---9--10-9--10-9--10--12---9--10-9--10-9--10--9---9--10-9--10--12--|
E|------------7----------------------10----------------------7----------------10--|

Verse A x2 ( When I was younger...)Play all once time.	
e|--------------------------|
B|--------------------------|
G|-------------12--11-9--7--|
D|--9----12----x---x--x--x--|
A|--9----12----10--9--7--5--|
E|--7----10-----------------|

Intro x1

Verse B x2 ( Insecurity, no confidence...)	    
e|--x8---x8----x4--x4-x4-x4-|
B|--^----^------------------|
G|-------------12--11-9--7--|
D|--9----12----x---x--x--x--|
A|--9----12----10--9--7--5--|
E|--7----10-----------------|
[ Tab from: http://www.guitartabs.cc/tabs/m/millencolin/highway_donkey_tab.html ]
Chours x2 ( I'm not going...)
e|---x8---x8---x8---x4-x4---|
B|--------------------------|
G|---7---------9-------9----|
D|---7----7----9----9--9----|
A|---5----7----7----9--7----|
E|--------5---------7-------|

Intro x1

Verse B x2 ( Just because...)

Chorus x2

Solo
e|------------------------------------------------10-----------------------------------------------------------------10----------------|
B|--9b11--9b11--9b11--9----------------------9-11-----12-11-9--11-9----11p9----------9-11-9-11-9-11-9-11-11-12-11-12----12p11p9--------|
G|------------------------12-11-12-9---11-12------------------------12------12-9--12--------------------------------------------11b12--|
D|-------------------------------------------------------------------------------------------------------------------------------------|
A|-------------------------------------------------------------------------------------------------------------------------------------|
E|-------------------------------------------------------------------------------------------------------------------------------------|

Chorus x2

That's all. Final part of solo is hard to tab if anyone have one better send
it to me.
Comments